E-Chords
Curtis Mayfield

Freddys Dead(Bass guitar)

Curtis Mayfield

Intro 
G|------------------------|------------| 
D|*--6--6--4-----4--------|-----------*| 
A|*-----------7-----7--4--|--4--4--4--*| 
E|------------------------|------------| 
                                                                         
Main riff                                                                        
G|-----------|-----------|-----------|-----------------| 
D|--------2--|--------2--|--------2--|-----------------| 
A|--2--4-----|--2--4-----|--2--4-----|--2--4--2--------| 
E|-----------|-----------|-----------|-----------4--0--| 
                                                                         
Chorus                                                          
G|-----------------|-----------------------|-----------------| 
D|-----------2--4--|--6--4--2-----2--------|-----------2--4--| 
A|--------4--------|-----------4-----4--2--|--------4--------| 
E|--2--5-----------|-----------------------|--2--5-----------| 

G|-------------------------------| 
D|--------6--6--4-----4----------| 
A|-----------------7-----7--4----| 
E|--2--5-------------------------| 
                                                                         
Second Chorus 
                                               2x                   
G|------------------|------------------------| 
D|*-----------2--4--|--6--4--2-----2--------*| 
A|*--------4--------|-----------4-----4--2--*| 
E|---2--5-----------|------------------------| 

G|-----------------|-----------------------------| 
D|-----------2--4--|--------6--6--4-----4--------| 
A|--------4--------|-----------------7-----7--4--| 
E|--2--5-----------|--2--5-----------------------| 
                                                
Change of key bit 
                                                               3x         
G|------------|-----------|-----------|------------------| 
D|*--------3--|--------3--|--------3--|-----------------*| 
A|*--3--5-----|--3--5-----|--3--5-----|--3--5--3--------*| 
E|------------|-----------|-----------|-----------5--1---| 



************************************ 

| *  Natural harmonic 

************************************ 

roll up this ad to continue

share this page

See Also: