E-Chords
Cortex

Jesus I Betong(Bass guitar)

Cortex

roll up this ad to continue

Intro 
G|----------------| x4  
D|----------------| 
A|-5-5------------| 
E|-----5-5-6-6-5-5| 

verse 1/Pre-Chorus 
G|----------------| x7 
D|----------------| 
A|-5-5------------| 
E|-----5-5-6-6-5-5| 

G|----------------|  
D|----------------| 
A|-5-5------------| 
E|-----5-5-6-6-5-0| 

Chorus 
G|--------------|---------------| x3 
D|--------------|---------------| 
A|--------------|--5-5-5-5-5-5-0| 
E|-1-1-1--3-3-3-|---------------| 

G|--------------|---------------|  
D|--------------|---------------| 
A|--------------|--5-5-5-5-5-5-5| 
E|-1-1-1--3-3-3-|---------------| 

Interlude 
G|----------------| x4  
D|----------------| 
A|-5-5------------| 
E|-----5-5-6-6-5-5| 

verse 2/Pre-Chorus 
G|---------------| x7 
D|---------------| 
A|-5-------------| 
E|----5-6-6-6-5-5| 

G|---------------|  
D|---------------| 
A|-5-------------| 
E|----5-5-6-6-5-0| 

Chorus 
G|--------------|---------------| x3  
D|--------------|---------------| 
A|--------------|--5-5-5-5-5-5-0| 
E|-1-1-1--3-3-3-|---------------| 

G|--------------|---------------|  
D|--------------|---------------| 
A|--------------|--5-5-5-5-5-5-5| 
E|-1-1-1--3-3-3-|---------------| 

Solo 
G|----------------| x12  
D|----------------| 
A|-5-5------------| 
E|-----5-5-6-6-5-5| 

verse 3/Pre-Chorus 
G|---------------| x7 
D|---------------| 
A|-5-------------| 
E|----5-6-6-6-5-5| 

G|----------------|  
D|----------------| 
A|-5-5------------| 
E|-----5-5-6-6-5-0| 

Chorus 
G|--------------|---------------| x3  
D|--------------|---------------| 
A|--------------|--5-5-5-5-5-5-0| 
E|-1-1-1--3-3-3-|---------------| 

G|--------------|---------------|  
D|--------------|---------------| 
A|--------------|--5-5-5-5-5-5-5| 
E|-1-1-1--3-3-3-|---------------| 

Outro 
G|----------------| x13 
D|----------------| 
A|-5-5------------| 
E|-----5-5-6-6-5-5| 

G|--|  
D|--| 
A|-5| 
E|--| 
share this page

See Also: