E-Chords
Cold Chisel

Star Hotel(Bass guitar)

Cold Chisel

Key: E
Intro 
    Q=155 
   4/4 
    E E E E Q  Q    E E E E Q  Q    E E E E Q  Q    E E E E Q  Q 
||----------------|---------------|---------------|----------------|| 
||o---------------|---------------|------------5--|------------5--o|| 
||o---------0--3--|------------3--|-3-3-3-3-6-----|---3-3-3-6-----o|| 
||--1-1-1-1-------|---1-1-1-4-----|---------------|----------------|| 

                                                |-3-| 
  Q  E e Q  Q    Q  E e Q  Q    Q  E e Q  E E   q q q Q  E E 
|--------------|--------------|---------------|--------------| 
|--------------|--------------|---------------|--------------| 
|--------------|-6----6-6-----|-4----4-4------|-3-3-3-3------| 
|-6----6-6-----|--------------|-------------4-|------------3-| 

                                   |-3-| 
  E E E E Q  Q    E E E E Q  E E   q q q Q  Q    E E E E Q  Q 
|---------------|----------------|-------------|---------------| 
|---------------|---1-1-1-1--3---|-------------|---1-1-1-1-----| 
|---------------|--------------3-|-------------|------------3--| 
|-1-1-1-1-1-----|----------------|-1-1-1-1-----|---------------| 

    E E E E Q  Q    E E E E Q  Q    E E E E Q  Q    E E E E Q  Q 
||----------------|---------------|---------------|----------------|| 
||o---------------|---------------|------------5--|------------5--o|| 
||o---------0--3--|------------3--|-3-3-3-3-6-----|---3-3-3-6-----o|| 
||--1-1-1-1-------|---1-1-1-4-----|---------------|----------------|| 

                  |-3-|                         |-3-| 
  Q.   E Q.   E   q q q Q  Q    Q.   E Q.   E   Q Q Q Q  Q 
|---------------|-------------|---------------|--------------| 
|---------------|-------------|---------------|--------------| 
|-------------4-|----------3--|-6----6-6------|-6-6---6--4---| 
|-4----4-4------|-4-4-4-4-----|-------------6-|-----6--------| 

    E E E E E E E E   E E E E E E E E   E E E E E E E E 
||------------------|-----------------|-----------------| 
||o-----------------|-----------------|-----------------| 
||o-----------------|-3-3-3-3-3-3-3-3-|-4-4-4-4-4-4-4-4-| 
||--6-6-6-6-6-6-6-6-|-----------------|-----------------| 

  E E E E E E E E   H..       E   +W 
|-----------------|-------------|--------|| 
|-----------------|-3-----------|--------|| 
|-6-6-6-6-6-6-6-6-|-------------|--------|| 
|-----------------|-----------1-|-(1)----|| 

Verse 
    E E E E Q  Q    E E E E Q  Q    E E E E Q  Q    E E E E Q  Q 
||----------------|---------------|---------------|---------------| 
||o---------------|---------------|------------5--|------------5--| 
||o---------0--3--|------------3--|-3-3-3-3-6-----|---3-3-3-6-----| 
||--1-1-1-1-------|---1-1-1-4-----|---------------|---------------| 


  E E E E Q  Q    E E E E Q  Q    E E E E Q  Q    E E E E Q  Q 
|---------------|---------------|---------------|----------------| 
|---------------|---------------|------------5--|------------5---| 
|---------0--3--|------------3--|-3-3-3-3-6-----|---3-3-3-6------| 
|-1-1-1-1-------|---1-1-1-4-----|---------------|----------------| 

                  |-3-| 
  Q.   E Q.   E   Q Q Q Q  Q    Q.   E Q.   E   E Q  E Q  Q 
|---------------|-------------|---------------|--------------| 
|-6----6-6------|-------6-----|---------------|--------------| 
|-------------6-|----------3--|-6----6-6------|-6-6----6--4--| 
|---------------|-4-4-4-------|-------------6-|------6-------| 

  ___________________________________________________ 
 |1.                                                 | 
  Q.   E H      Q.   E Q  Q    H..       E   +W 
|-------------|--------------|-------------|---------|| 
|-------------|--------------|-3-----------|--------o|| 
|-------------|-6----6-6--3--|-------------|--------o|| 
|-6----6-6----|--------------|-----------1-|-(1)-----|| 

  ________                                               _________________ 
 | 2.                                                   |1. 
    E E E E E E E E   E E E E E E E E   E E E E E E E E   E E E E E E E E 
||------------------|-----------------|-----------------|------------------|| 
||o-----------------|-----------------|-----------------|-----------------o|| 
||o-----------------|-3-3-3-3-3-3-3-3-|-4-4-4-4-4-4-4-4-|-6-6-6-6-6-6-6-6-o|| 
||--6-6-6-6-6-6-6-6-|-----------------|-----------------|------------------|| 

 _______________ 
| 2. 
  E E E E E E E E   +H..       E   H.      Q 
|-----------------|--------------|------------|| 
|---------------3-|-(3)----------|------------|| 
|-6-6-6-6-6-6-6---|--------------|------------|| 
|-----------------|------------1-|-1----------|| 

Chorus 
                                            |1.            || 2. 
    $ 
    Q  Q  Q  Q    Q  Q  Q  Q    Q  Q  Q  Q    Q  Q  Q  Q      E E E E Q  Q 
||--------------|-------------|-------------|--------------||---------------|| 
||o-------------|-------------|-------------|-------------o||---------------|| 
||o-------------|-------3--3--|-------------|-------------o||---------------|| 
||--1--1--1--1--|-3--3--------|-1--1--1--1--|-4--4--4--4---||-4-4-4-4-4--4--|| 


  E E E E E E E E   E E E E E E E E   E E E E E E E E   E E E E E E E E 
|-----------------|-----------------|-----------------|------------------| 
|-----------------|-----------------|-----------------|------------------| 
|-----------------|-3-3-3-3-3-3-3-3-|-4-4-4-4-4-4-4-4-|-6-6-6-6-6-6-6-6--| 
|-6-6-6-6-6-6-6-6-|-----------------|-----------------|------------------| 

                                                             Fine 
  E E E E E E E E   E E E E Q  Q    H..       E   +H..       Q 
|-----------------|---------------|-------------|---------------| 
|-----------------|---------------|-3-----------|---------------| 
|-----------------|-6-6-6-6-3--3--|-------------|---------------| 
|-6-6-6-6-6-6-6-6-|---------------|-----------1-|-(1)-----------| 

Interlude 
    Q  Q  Q  Q    Q  Q  Q  Q    Q  Q  Q  Q    Q  Q  Q  Q 
||--------------|-------------|-------2-----|--------------|| 
||o-------0-----|-------0-----|-0--3-----3--|-0-----------o|| 
||o----2-----3--|----1-----1--|-------------|----0-----0--o|| 
||--3-----------|-3-----------|-------------|-------1------|| 

Solo 
                                                  |-3-| 
  Q.   E Q.   E   Q.   E Q.   E   Q.   E Q.   E   q q q Q  E E 
|---------------|---------------|---------------|--------------| 
|---------------|---------------|---------------|--------------| 
|-3----3-3------|---------------|-6----6-6----0-|-5-5-5-5----0-| 
|-------------3-|-1----1-1----1-|---------------|--------------| 

                   |-3-|                           |-3-| 
  e e e e Q  E E   q q q Q  E E   e e e e Q  E E   q q q Q  Q 
|----------------|--------------|----------------|--------------|| 
|----------------|--------------|----------------|-3------------|| 
|------------5---|----------3---|---------5--5---|---3----------|| 
|-3-3-3-3-3----3-|-1-1-1-1----1-|-3-3-3-3------3-|-----1-1------|| 

Verse 
    E E E E Q  Q    E E E E Q  Q    E E E E Q  Q    E E E E Q  Q 
||----------------|---------------|---------------|----------------|| 
||o------------0--|------------0--|------------7--|------------7--o|| 
||o---------2-----|---------1-----|-5-5-5-5-8-----|---5-5-5-8-----o|| 
||--3-3-3-3-------|---3-3-3-------|---------------|----------------|| 

                    |-3-|                         |-3-| 
    Q  E e Q  E e   q q q Q  Q    Q  E e Q  E E   q q q Q  Q 
||----------------|-------------|---------------|-------------| 
||o-------------8-|-------------|---------------|-------------| 
||o---------------|----------3--|-------------3-|-------------| 
||--6----6-6------|-6-6-6-6-----|-1----1-1------|-1-1-1-1-----| 

  E E E E E E E E   E E E E E E E E   E E E E E E E E   E E E E E E E E 
|-----------------|-----------------|-----------------|-------------------|| 
|-----------------|-----------------|-----------------|------------------o|| 
|-3-3-3-3-3-3-3-3-|-5-5-5-5-5-5-5-5-|-6-6-6-6-6-6-6-6-|-8-8-8-8-8-8-8-8--o|| 
|-----------------|-----------------|-----------------|-------------------|| 

  E E E E E E E E   E E E E E E E E   E E E E E E E E 
|-----------------|-----------------|-----------------| 
|-----------------|-----------------|-----------------| 
|-3-3-3-3-3-3-3-3-|-5-5-5-5-5-5-5-5-|-6-6-6-6-6-6-6-6-| 
|-----------------|-----------------|-----------------| 

                                          D.S. al Fine 
  E E E E E E E E   a E E E E E E E E   E E E E E E E E 
|-----------------|-------------------|-----------------|| 
|-----------------|-3h5-5-5-3h5-5-5-5-|-----------------|| 
|-----------------|-------------------|-----------------|| 
|-1-1-1-1-1-1-1-1-|-------------------|-3-3-3-3-3-3-3-3-|| 



************************************ 

| (n)  Ghost note 
| h    Hammer-on 

************************************ 

roll up this ad to continue

share this page

See Also: