E-Chords
Charlie Louvin

I Dont Love You Anymore(Bass guitar)

Charlie Louvin

G|------------------------------------------------------------------------------------------------| 
D|5-----------------------5-----------------------5-----------------------5-----5-----------------| 
A|------------3-----------------------5-----------------------5-----------------------------------| 
E|------------------------------------------------------------------------------------------------| 

0:09 

G|------------------------------------------------------------------------------------------------| 
D|5-----------------------5-----------------------5-----------------------5-----------------4-----| 
A|------------3-----------------------5-----------------------3-----------------5-----7-----------| 
E|------------------------------------------------------------------------------------------------| 

G|------------------------------------------------------------------------------------------------| 
D|5-----------------------5-----------4-----------------------------------------------------4-----| 
A|------------3-----------------------------7-----5-----------------------5-----5-----7-----------| 
E|------------------------------------------------------------5-----------------------------------| 

0:24 

G|------------------------------------------------------------------------------------------------| 
D|5-----------------------5-----------------------5-----------------------5-----------------4-----| 
A|------------3-----------------------5-----------------------3-----------------5-----7-----------| 
E|------------------------------------------------------------------------------------------------| 

G|------------------------------------------------------------------------------------------------| 
D|5-----------4-----------------------------4-----5-----------------------5-----5-----------------| 
A|------------------7-----5-----------7-----------------------5-----------------------------2-----| 
E|------------------------------------------------------------------------------------5-----------| 

0:39 

G|------------------------------------------------------------------------------------------------| 
D|------------5-----------------------------4-----5-----------------------5-----------------4-----| 
A|3-----------------------3-----------7-----------------------5-----------------5-----7-----------| 
E|------------------------------------------------------------------------------------------------| 

G|------------------------------------------------------------------------------------------------| 
D|5-----------------------5-----------------------------------------------------------------------| 
A|------------5-----------------------5-----------------------7-----------5-----------------------| 
E|------------------------------------------7-----5-----------------------------------5-----------| 

G|------------------------| 
D|------------------4-----| 
A|5-----5-----7-----------| 
E|------------------------| 

0:56 

G|------------------------------------------------------------------------------------------------| 
D|5-----------------------5-----------------------5-----------------------5-----------------4-----| 
A|------------3-----------------------5-----------------------3-----------------5-----7-----------| 
E|------------------------------------------------------------------------------------------------| 

G|------------------------------------------------------------------------------------------------| 
D|5-----------4-----------------------------4-----5-----------------------5-----------------4-----| 
A|------------------7-----5-----------7-----------------------5-----------------5-----7-----------| 
E|------------------------------------------------------------------------------------------------| 

G|------------------------------------------------------------------------------------------------| 
D|5-----------------------5-----------------------5-----------------------5-----5-----------------| 
A|------------3-----------------------5-----------------------5-----------------------------------| 
E|------------------------------------------------------------------------------------------------| 

1:19 

G|------------------------------------------------------------------------------------------------| 
D|5-----------------------5-----------------------5-----------------------5-----------------4-----| 
A|------------3-----------------------5-----------------------3-----------------5-----7-----------| 
E|------------------------------------------------------------------------------------------------| 

G|------------------------------------------------------------------------------------------------| 
D|5-----------------------5-----------4-----------------------------------------------------4-----| 
A|------------3-----------------------------7-----5-----------------------5-----5-----7-----------| 
E|------------------------------------------------------------5-----------------------------------| 

1:34 

G|------------------------------------------------------------------------------------------------| 
D|5-----------------------5-----------------------5-----------------------5-----------------4-----| 
A|------------3-----------------------5-----------------------3-----------------5-----7-----------| 
E|------------------------------------------------------------------------------------------------| 

G|------------------------------------------------------------------------------------------------| 
D|5-----------4-----------------------------4-----5-----------------------5-----5-----------------| 
A|------------------7-----5-----------7-----------------------5-----------------------------2-----| 
E|------------------------------------------------------------------------------------5-----------| 

1:49 

G|------------------------------------------------------------------------------------------------| 
D|------------5-----------------------------4-----5-----------------------5-----------------4-----| 
A|3-----------------------3-----------7-----------------------5-----------------5-----7-----------| 
E|------------------------------------------------------------------------------------------------| 

G|------------------------------------------------------------------------------------------------| 
D|5-----------------------5-----------------------------------------------------------------------| 
A|------------5-----------------------5-----------------------7-----------5-----------------------| 
E|------------------------------------------7-----5-----------------------------------5-----------| 

G|------------------------| 
D|------------------4-----| 
A|5-----5-----7-----------| 
E|------------------------| 

2:06 

G|------------------------------------------------------------------------------------------------| 
D|5-----------------------5-----------------4-----5-----------------------5-----------------4-----| 
A|------------3-----------------5-----7-----------------------3-----------------5-----7-----------| 
E|------------------------------------------------------------------------------------------------| 

G|------------------------------------------------------------------------------------------------| 
D|5-----------5-----------------------------4-----5-----------------------5-----------------4-----| 
A|------------------7-----5-----------7-----------------------5-----------------5-----7-----------| 
E|------------------------------------------------------------------------------------------------| 

G|------------------------------------------------------------------------------------------| 
D|5---5-------4-----------------------------4-----5-----------------------5-----------5-----| 
A|------------------7-----5-----------7-----------------------5-----------------5-----------| 
E|------------------------------------------------------------------------------------------| 

roll up this ad to continue

share this page

See Also: