E-Chords
BTS

Like(Bass guitar)

BTS

roll up this ad to continue

Intro 

G|--0-------3-------------| 
D|-------3-----1----0-----| 
A|------------------------| 
E|------------------------| 

Verse 

G|---0-----3----------0-----3------------| 
D|-----4-3---1----0-----4-3---1----0-----| 
A|---------------------------------------| 
E|---------------------------------------| x5 



G|---0-----3----------0-----3------------| 
D|-----4-3---1----0-----4-3---1----0-----| 
A|---------------------------------------| 
E|---------------------------------------| x4 

verse 2 

G|---0-----3----------0-----3------------| 
D|-----4-3---1----0-----4-3---1----0-----| 
A|---------------------------------------| 
E|---------------------------------------| x4 



G|---0-----3----------0-----3------------| 
D|-----4-3---1----0-----4-3---1----0-----| 
A|---------------------------------------| 
E|---------------------------------------| x4 

verse 3 

G|---0-----3----------0-----3------------| 
D|-----4-3---1----0-----4-3---1----0-----| 
A|---------------------------------------| 
E|---------------------------------------| x2 



G|---0-----3----------0-----3------------| 
D|-----4-3---1----0-----4-3---1----0-----| 
A|---------------------------------------| 
E|---------------------------------------|x4 
share this page

See Also: