E-Chords
Brenda Lee

Aint Gonna Cry No More(Bass guitar)

Brenda Lee

 

G|----------------------------------------------------------------| 
D|2-----------2---2-----------2-----------------------------------| x2 
A|--------------------------------0-----------0---0---------------| 
E|----------------------------------------------------------------| 

0:11 

G|----------------------------------------------------------------| 
D|2-----------2---2-----------2-----------------------------------| 
A|--------------------------------0-----------0---0---------------| 
E|----------------------------------------------------------------| 

G|----------------------------------------------------------------| 
D|2-----------2---2-----------2-----------------------------------| 
A|--------------------------------0-----------0---0-----------0---| 
E|----------------------------------------------------------------| 

G|----------------------------------------------------------------| 
D|----------------------------------------------------------------| 
A|--------------------------------4-----------4---4---------------| 
E|4-----------4---4-----------4-----------------------------------| 

G|--------1---1---2---2---3---3---4-------------------------------| 
D|4---4-----------------------------------------------------------| 
A|----------------------------------------------------------------| 
E|----------------------------------------------------------------| 

G|----------------------------------------------------------------| 
D|----------------------------------------------------------------| 
A|4-----------4---4-----------4---2-------2-----------------------| 
E|----------------------------------------------------------------| 

0:37 

G|----------------------------------------------------------------| 
D|2-----------2---2-----------2-----------------------------------| x2 
A|--------------------------------0-----------0---0---------------| 
E|----------------------------------------------------------------| 

G|----------------------------------------------------------------| 
D|----------------------------------------------------------------| 
A|--------------------------------4-----------4---4---------------| 
E|4-----------4---4-----------------------------------------------| 

G|--------1---1---2---2---3---3---4-------------------------------| 
D|4---4-----------------------------------------------------------| 
A|----------------------------------------------------------------| 
E|----------------------------------------------------------------| 

G|----------------------------------------------------------------| 
D|----------------------------------------------------------------| 
A|4-----------4---4-----------4---4---------------------------2---| 
E|----------------------------------------------------------------| 

1:04 

G|----------------------------------------------------------------| 
D|----------------------------------------------------------------| 
A|0-----------0---0-----------0---0-----------0---0---------------| 
E|----------------------------------------------------------------| 

G|----------------------------------------------------------------| 
D|----------------------------------------------------------------| 
A|----------------------------6-----------------------------------| 
E|4-----------4---4---------------4-------------------------------| 

G|----------------------------------------------------------------| 
D|----------------------------------------------------------------| 
A|0-----------0---0-----------0---0-----------0---0---------------| 
E|----------------------------------------------------------------| 

G|----------------------------------------------------------------| 
D|----------------4-------4---------------------------------------| 
A|2-------------------------------2-------------------------------| 
E|----------------------------------------------------------------| 

G|----------------------------------------------------------------| 
D|----------------------------------------------------------------| 
A|4-----------4---4-----------4---2-------2-----------------------| 
E|----------------------------------------------------------------| 

1:30 

G|----------------------------------------------------------------| 
D|2-----------2---2-----------2-----------------------------------| x2 
A|--------------------------------0-----------0---0---------------| 
E|----------------------------------------------------------------| 

G|----------------------------------------------------------------| 
D|----------------------------------------------------------------| 
A|--------------------------------4-----------4---4---------------| 
E|4-----------4---4-----------------------------------------------| 

G|--------1---1---2---2---3---3---4-------------------------------| 
D|4---4-----------------------------------------------------------| 
A|----------------------------------------------------------------| 
E|----------------------------------------------------------------| 

G|----------------------------------------------------------------| 
D|----------------------------6-----------------------------------| 
A|4-----------4---4---------------4-----------4---4-----------4---| 
E|----------------------------------------------------------------| 

G|----------------------------------------------------------------| 
D|2-----------2---2---------------2-----------2-----------2---2---| 
A|----------------------------2-----------------------------------| 
E|----------------------------------------------------------------| 

G|------------------------------------| 
D|------------------------------------| fades out here. 
A|4-----------4---4-----------4---4---| 
E|------------------------------------| 

roll up this ad to continue

share this page

See Also: