E-Chords
Backyard Babies

Wireless Mind(Bass guitar)

Backyard Babies

roll up this ad to continue

Band: 
 
Taken From: Knockouts EP
Tabbed by: uzi69

Tuning - 1/2 a step down Eb Ab Db Gb

This is the riff for Johan's bass solo 1/2 way through the song
he plays this riff for the rest of the song with a few alterations 
here and there.

Main Riff:
Gb|-----------------------------------|
Db|-----------------------------------|
Ab|-0-0-0-0-0-0-0-0-3-3-3-3-3-3-3-3-3-|
Eb|-----------------------------------|

Gb|-----------------------------------|
Db|-----------------------------------|
Ab|-----------------------------------|
Eb|-3-3-3-3-3-3-3-3-1-1-1-1-1-1-1-1---|

Aleration 1:
Gb|-----------------------------------|
Db|-----------------------------------|
Ab|-0-0-0-0-0-0-0-0-3-3-3-3-3-3-3-3-3-|
Eb|-----------------------------------|

Gb|-----------------------------------|
Db|-----------------------------------|
Ab|-----------------------------------|
Eb|-3-3-3-3-3-3-3-3-1-1-1-1-1-1-1-1---|

Gb|-------------------------------------------------|
Db|-------------------------------------------------|
Ab|-------------------------------------------------|
Eb|-1-1-1-1-1-1-1-1-1-1-1-1-1-1-1-1-1-1-1-1-1-1-1-1-|


Alteration 2: 
Play this 2 times after nicke starts singing again
Gb|-----------------------------------|
Db|-----------------------------------|
Ab|-0-0-0-0-0-0-0-0-3-3-3-3-3-3-3-3-3-|
Eb|-----------------------------------|

Gb|-----------------------------------|
Db|-----------------------------------|
Ab|-----------------------------------|
Eb|-3-3-3-3-3-3-3-3-1-1-1-1-3-3-3-3---|

+---------------------------+ 
|     Taken from Dreggy's   | 
|  Backyard Babies Website  | 
|www.backyard-babies.cjb.net| 
+---------------------------+
share this page

See Also: