E-Chords
Backyard Babies

Babylon(Bass guitar)

Backyard Babies

roll up this ad to continue

Title: .
 .
Taken from: 'Safety Pin and Leopard Skin' mini-album on Coalition.

Tuning, Standard (G,D,A,E)

/ = slide

Main Riff
G----------------------------
D----------------------------
A----------------------------
E--0-3-7-7-0--5-5-5-0-3---3-3

Chorus 
G--------------------------------------------------
D--------------------------------------------------
A--7-7-7-7-7-0-5-5-5-5-5-0-------------------------
E--------------------------0-3/8-8-8-0-0-0-3/8-8-8

Chorus (continued)
G--------------------------
D--------------------------
A--7-7-7-7-7-0-5-5-5-5-5-0
E--------------------------

On 'Shut Up' bit, through-out the song
G------
D------
A------
E--3--3

You'll have to work the order out yourself, but it generally revolves 
around the main riff which easy to get used too.
----------------------------------------------------------------------

If you have any corrections or comments, i want to hear them,
e-mail me at: [email protected]
share this page

See Also: