E-Chords
Atreyu

Tulips Are Better(Bass guitar)

Atreyu

roll up this ad to continue

 
Title: 
Album: Suicide Notes And Butterfly Kisses
Bassist: Chris ________?
Tabbed by: Hampster Wheel ([email protected])

---------------------

\     : Slide down
/     : Slide up
~     : Let Ring
__3__ : Triplets
*     : Sticatto
---------------------

Intro:
F|-----------------------------------------------------------------
C|-----------------------------------------------------------------
G|-----------------------------------------------------------------
C|-7/10----10-10-10------10\7-7---7-7-7---7------------------------

F|------------------2-2---2-2--2-2---------------------------------
C|-----------------------------------------------------------------
G|--3-3---3-3--3-3-------------------------------------------------
C|-----------------------------------------------------------------

Verse 1:
F|-----------------------------------------------------------------======|
C|-----------------------------------------------------------------  Play|
G|-3-3-3-3-3-3-3-3-3-3-3-3-3-3-5-5-0-0-0-0-2-2-2-2-3-3-3-3-2-2-2-2-   2x |
C|-----------------------------------------------------------------======|

F|-----------------------------------------------------------------======|
C|-----------------------------------------------------------------      |
G|-0-0-0-0-0-0-0-0-0-0-0-0-0-0-0-0---------------------------------      |
C|---------------------------------3-3-3-3-3-3-3-3-3-3-3-3-3-3-3-3-  Play|
                                                                         |
F|-----------------------------------------------------------------   2x |
C|-----------------------------------------------------------------      |
G|-0-0-0-0-0-0-0-0-0-0-0-0-0-0-0-0-0-0-0-0-0-0-2-2-3-3-3-3-3-3-3-3-      |
C|-----------------------------------------------------------------======|

Chorus 1:
F|-----------------------------------------------------------------======|
C|-----------------------------------------------------------------  Play|
G|-0~--------------3~--------------0~--------------3~--------------   2x |
C|-----------------------------------------------------------------======|

Verse 2:
F|-----------------------------------------------------------------======|
C|-----------------------------------------------------------------      |
G|-----------------------------------------------------------------      |
C|-0-0-3-2-0-0-3-2-0-0-3-2-0-0-3-2-0-0-3-2-0-0-3-2-0-0-3-2-0-0-3-2-  Play|
                                                                         |
F|-----------------                                                   2x |
C|-----------------                                                      |
G|-----------------                                                      |
C|-0---2---3---2---======================================================|

F|-----------------------------------------------------------------======|
C|-----------------------------------------------------------------      |
G|-----------------------------------------------------------------      |
C|-000---000-0-----000---000-0-----000---000-0-----000---000-0-----  Play|
                                                                         |
F|-----------------                                                   2x |
C|-----------------                                                      |
G|-----------------                                                      |
C|-0---2---3---2---======================================================|

Interlude:
F|-----------------------------------------------------------------
C|-----------------------------------------------------------------
G|-0~--------------------------------------------------------------
C|-----------------------------------------------------------------

F|-----------------------------------------------------------------
C|-----------------------------------------------------------------
G|-----------------------------------------------------------------
C|-0-0-0-0-0-0-0-0-0-0-0-0-0-0-0-0-0-0-0-0-0-0-0-0-0-0-0-0-0-0-0-0-

F|-----------------------------------------------------------------
C|-3-3-3-3-3-3-3-3-3-3-3-3-3-3-3-3---------------------------------
G|---------------------------------3-3-3-3-3-3-3-3-3-3-3-3-3-3-3-3-
C|-----------------------------------------------------------------

F|-----------------------------------------------------------------
C|-----------------------------------------------------------------
G|-----------------------------------------------------------------
C|-0-0-0-0-0-0-0-0-0-0-0-0-0-0-0-0-0-0-0-0-0-0-0-0-0-0-0-0-0-0-0-0-

F|-----------------------------------------------------------------
C|-3-3-3-3-3-3-3-3-3-3-3-3-3-3-3-3---------------------------------
G|---------------------------------3-3-3-3-3-3-3-3-2-2-2-2-2-2-2-2-
C|-----------------------------------------------------------------

F|-----------------------------------------------------------------
C|-----------------------------------------------------------------
G|-0~--------------------------------------------------------------
C|-----------------------------------------------------------------

F|-----------------------------------------------------------------
C|---------------------------------3~------------------------------
G|-3~--------------------------------------------__3__-__3__-*-----
C|-----------------------------------------------3-3-3-3-3-3-3-----

F|-----------------------------------------------------------------
C|-----------------------------------------------------------------
G|-0~--------------------------------------------------------------
C|-----------------------------------------------------------------

F|-----------------------------------------------------------------
C|-----------------------------------------------------------------
G|-----------------------------------------------------------------
C|-----------------------------------------------------------------

Bridge:
F|-----------------------------------------------------------------======|
C|-----------------------------------------------------------------  Play|
G|-0-0-0-0-0-0-0-0-0-0-0-0-0-0-0-0-8-8-8-8-8-8-8-8-8-8-8-8-8-8-8-8-   2x |
C|-----------------------------------------------------------------======|

F|-----------------------------------------------------------------======|
C|-----------------------------------------------------------------  Play|
G|-3-3-3-3-3-3-3-3-3-3-3-3-3-3-5-5-0-0-0-0-2-2-2-2-3-3-3-3-2-2-2-2-   6x |
C|-----------------------------------------------------------------======|

F|-----------------------------------------------------------------
C|-----------------------------------------------------------------
G|-0~----------------------2-------3~------------------------------
C|-----------------------------------------------------------------
share this page

See Also: