E-Chords
Atreyu

At Least I Know Im A Sinner(Bass guitar)

Atreyu

roll up this ad to continue

high to low f-c-g-c
[email protected]
i based this tab off of the guitar tab for this song

'Suicide Notes And Butterfly Kisses' Track 7

     intro                                      verse      chorus          ...
-|----------------|----|-2-0---|----|-2-0---|-------------|-------|-----------
-|----------------|----|-----2-|----|-----2-|-------------|-------|-----------
-|-5------------3-|----|-------|----|-------|-------------|-------|-----------
-|---0-0-0--320---|-0*-|-------|-0*-|-------|-00-33-58-8*-|-5*-8*-|-000000-03-

   bridge / preverse                  verse      'judge me and ...' chorus
-|----------------------------------|----------|-------------------|-------|--
-|----------------------------------|----------|-------------------|-------|--
-|----------------------------------|----------|-------------------|-------|--
-|-5555555-53-0-000000-03-7777-3333-|-0-3-5-8*-|-0--0----2222-3333-|-5*-8*-|--

   bridge / preverse                                                outro
-|--------------------------------------------|---|---------------|-------|---
-|--------------------------------------------|---|---------------|-------|---
-|--------------------------------------------|---|---------------|-8*----|---
-|-000000-03-5-55555-53-0-000000-03-7777-3333-|-0-|---------------|----5*-|---
share this page

See Also: