E-Chords
Atreyu

Aint Love Grand(Bass guitar)

Atreyu

roll up this ad to continue



SUICIDE NOTES AND BUTTERFLY KISSES
TRACK 03 - 'AIN'T LOVE GRAND?'

TUNING (high to low) - FCGc


CHORUS('it's so hard...' singing): figure out your own rhythm
f---------------------------------
c---------------------------------
g-----------------3-3-333-1-1-111-
c-0-0-000-3-3-333-----------------

CHORUS v2: he also does this occasionally
f---------------------------------
c---------------------------------
g-----------------3-3-345-1-1-111-
c-0-0-000-3-3-333-----------------

VERSE('gutted like a pig...'): each number is a 16th note
f----------------------------------------------------------------------------
c----------------------------------------------------------------------------
g-----------------------------------------------------------------8h10p8p7h8-
c-8888888888888888000000000000000088888888888888880000000000000000-----------
                                                                     ^ten
f-----------------------------------------------------------------
c-----------------------------------------------------------------
g-----------------------------------------------------------------
c-8888888888888888000000000000000088888888888888885-5-555-5-5-5555

PRECHORUS('you would rather bleed...'): each number is a 16th note
f-----------------------------------------------------------------
c-----------------------------------------------------------------
g-----------------------------------------------------------------
c-000-000-000-0005555555555555555-00--00--00--00-5555555555555555-

INTERLUDE:each is a half note, and the ~ means let it ring for another half
f----------
c----------
g-----3~2~-
c-0~~~-----

BRIDGE('it's so hard...' screaming): it's played in 16th notes. the > means goes on until the next one comes in. the '8' and '10' on C could be played in different combinations, so just find one that you like the best. the twelve on G is just played until the end of 'are rolling in the back of your' and 'just comes out'.
f-----------------------
c-------8>10>-----------
g-555888-----888888812>-
c-----------------------
           ^ten      ^twelve
OUTRO: each number is a 16th note
f-----------------------------------
c-888888888888888800000000000000h10-
g-----------------------------------
c-----------------------------------
                                  ^ten
there you go, you can figure out on your own how many times to play it, lord knows someone'll come in and clarify, i'm just giving you guys something to work with.


[email protected]
share this page

See Also: