E-Chords
Atreyu

A Vampire's Lament(Bass guitar)

Atreyu

roll up this ad to continue

Key: D
      A Vampire's Lament 
Band:       
Album:     Suicide Notes and Butterfly Kisses 
Tabber:   Spencer J 
Tuning:   Drop D and down a full step 

Verse I - 'I am the walking dead heartbreaker....' 
F|---------------------------------0-2-3-2-| 
C|------------0-1-3-1----------------------| 
G|-------------------------------------------| 
C|--0-0-0-0-----------0-0-0-0-----------| 


Verse 2 - 'I told myself the constant pain would ease....' 
F|-------------------------------------------|   |------------------------------------------------| 
C|-------------------------------------------|   |------------------------------------------------| 
G|--5--------7--------10---------8--------|   |--5--------7--------10--10--12--5----------| 
C|-----0000---0000-----0000---0000-|   |-----0000---0000--------------------0000-| 

F|-------------------------------------------|   |------------------------------------------------| 
C|-------------------------------------------|   |------------------------------------------------| 
G|--5--------7--------10---------8--------|   |--5--------7--------10-10-10-10-10-12---| 
C|-----0000---0000-----0000---0000-|   |-----0000---0000----------------------------| 


Verse 3 - 'The fear of romance, the pain of living, the joy of sorrow....' 
F|----------------------------------------------------|          |------------------------------------------------------| 
C|----------------------------------------------------|   x 2  |------------------------------------------------------|   x 2 
G|-555---555------5555--333---333---3333--|          |------------------------------------------------------| 
C|----------------------------------------------------|          |---777---777------7777--555---555---5555--| 


Verse 4 - 'God help me, I'm so tired....' 
F|-----------------------|           |-----------------| 
C|-----------------------|   x 4   |-----------------| 
G|-----------------------|           |-----------------| 
C|--3---5h7---5-----2-|          |---3-------3----| 


Instrumental/Breakdown 

F|--------------------|             |---------------------------------------------| 
C|--------------------|             |---------------------------------------------| 
G|--------------------|     x 4   |-1/5-5----5p3-3---3p1-1---1h3--3--3-|   Repeat until the end of the song. 
C|--0-0------00-0--|             |---------------------------------------------| 


share this page

See Also: