Anti-Flag

Free Nation?(Bass guitar)

Anti-Flag

Key: ---------------------------------------

roll up this ad to continue

	        

***************************************************************
*                 - ''                   *
*              Tabbed by [email protected]                 *
*            From the album 'A New Kind Of Army'              *
***************************************************************

This is on of the easier Anti-Flag songs, and I know that this is not EXACTLY correct,
but it's an easy way to play that still sounds pretty accurate to a crowd. If you'd like 
to figure out the extra notes that I didn't include, go ahead. Enjoy!


Intro/1st  Verse:
G -----------------------------------------------------------------
D -------------------------------------3-3-3-3-1-1-1-1-0-0-0-0----- (x4)
A -3-3--1-3-3--1-3-3--1-3-3--1-1-1-1-------------------------------
E -----------------------------------------------------------------
  
2nd  Verse:
G ---------------------------------------l---------------------------------------
D -1-1-1-1-1-1-1-1-----------------------l---------------1-1----------------0-0-- (x1)
A ---------------------1-1-1-1-1-1-1-1---l---3-3-3-3-3-3------3-3-3-3-3-3--------
E ---------------------------------(x2)--l---------------------------------------
   
Then, go back to the intro tune:
G ----------------------------------------------------------------
D ------------------------------------3-3-3-3-1-1-1-1-0-0-0-0----- (x4)
A -3-3--1-3-3--1-3-3--1-3-3--1-1-1-1------------------------------
E ----------------------------------------------------------------
    
Then, back to the other half of the verse:
G ------------------------------------------------------------------------------
D -1-1-1-1-1-1-1-1--------------------------------------1-1----------------0-0-- (x1)
A ---------------------1-1-1-1-1-1-1-1------3-3-3-3-3-3------3-3-3-3-3-3--------
E---------------------------------(x2)------------------------------------------
    
Now here's the moderately hard part - scaling. It's easier than it sounds.
G ---------------------0-0--1-1--3-3--0-0--3-3--1-1--0-0------1-1--0-0-----------
D ------0-0--1-1--3-3-------------------------------------3-3-----------3-3--1-1- (x2)
A -3-3---------------------------------------------------------------------------
E -------------------------------------------------------------------------------

I know there are some higher notes and different tunes here, but I don't play them.
G --------------------------------------------------------------------
D -------------------------------------------------------------------- (x9)
A -3-3-3-3-3-3-3-3--1-1-1-1-1-1-1-1-----------------------------------
E -----------------------------------4-4-4-4-4-4-4-4-4-4-4-4-4-4-4-4--

This part starts at: 'And they won't stop until this nation is all straight and all white' 
G --------------------------------------------------------------------
D -----------------------------------1-1-1-1-1---1-1-1-1-1---1-1-1-1-- (x11)
A -1-1-1-1-1-1-1-1--3-3-3-3-3-3-3-3-----------------------------------
E --------------------------------------------------------------------


Or if you'd like the notes:

1st  Verse: C-Bb-Bb-F-Eb-D (x4)
2nd  Verse: Eb-Bb-C (x2)*F-C-F (x1)
1st  Verse: C-Bb-Bb-F-Eb-D (x4)
2nd  Verse: Eb-Bb-C (x2)*F-C-F (x1)
Scaling: C-D-Eb-F-G-Ab-Bb-G-Bb-Ab-G-F-Ab-G-F-Eb (x2)
Bridge: C-Bb-Ab (x9)
Outro: Bb-C-Eb

	        

Written by Anti-Flag/Justin Sane

See Also: