E-Chords
Almafuerte

Voy A Enloquecer(Bass guitar)

Almafuerte

G||--------------------|-------------------|-------------------| 
D||--------------------|-------------------|-------------------| 
A||--------------------|-------------------|-------------------| 
E||--5----------5------|------5------------|--5----------------| 


                                                        
----------------------------|-------------------------| 
-----7--7-5---5-------------|-----7--7-5---5----------| 
--0---------7-----7--6-5-3--|--0---------7------------| 
----------------------------|------------------0------| 


                                                        
----------------------------|-------------------------| 
-----7--7-5---5-------------|-----7--7-5---5----------| 
--0---------7-----7--6-5-3--|--0---------7------------| 
----------------------------|------------------0------| 


                                                         
----------------------------|--------------------------| 
----------------------------|--------------------------| 
--5--5-5-8-5-----------3-5--|--5--5-5-8-5--------------| 
--------------3--4--5-------|--------------3--4--5-----| 


                                                         
----------------------------|--------------------------| 
----------------------------|--------------------------| 
--5--5-5-8-5-----------3-5--|--5--5-5-8-5--------5-----| 
--------------3--4--5-------|--------------3--4--------| 


                                                        
----------------------------|-------------------------| 
-----7--7-5---5-------------|-----7--7-5---5----------| 
--0---------7-----7--6-5-3--|--0---------7------------| 
----------------------------|------------------0------| 


                                                                             
----------------------------|-------------------------|--------------------| 
-----7--7-5---5-------------|-----7--7-5---5----------|--------------------| 
--0---------7-----7--6-5-3--|--0---------7------------|--5--5--------------| 
----------------------------|------------------0------|--------------------| 


                                                                
--------------------|--------------------|--------------------| 
--------------------|--------------------|--------------------| 
--5--5--------------|--5--5--------------|--5--5--------------| 
--------------------|--------------------|--------------------| 


                                                                     
---------------------------------|---------------------------------| 
---------------------------------|---------------------------------| 
------------------------------5--|------------------------------5--| 
--0-0-0-0-0-0-0-0-0-0-0-0-0-0----|--0-0-0-0-0-0-0-0-0-0-0-0-0-0----| 


                                                                       
----------------------------------|----------------------------------| 
----------------------------------|----------------------------------| 
----------------------------------|--5-5-5-5-5-5-5-5-5-5-5-5-5-5-5-5-| 
--0-0-0-0-0-0-0-0-0-0-0-0-0-0-0-0-|----------------------------------| 


                                                                     
---------------------------------|---------------------------------| 
---------------------------------|---------------------------------| 
------------------------------5--|------------------------------5--| 
--0-0-0-0-0-0-0-0-0-0-0-0-0-0----|--0-0-0-0-0-0-0-0-0-0-0-0-0-0----| 


                                                                       
----------------------------------|----------------------------------| 
----------------------------------|----------------------------------| 
----------------------------------|--5-5-5-5-5-5-5-5-5-5-5-5-5-5-5-5-| 
--0-0-0-0-0-0-0-0-0-0-0-0-0-0-0-0-|----------------------------------| 


                                                                       
----------------------------------|----------------------------------| 
----------------------------------|----------------------------------| 
--3-3-3-3-3-3-3-3-3-3-3-3-3-3-3-3-|--2-2-2-2-2-2-2-2-2-2-2-2-2-2-2-2-| 
----------------------------------|----------------------------------| 


                                                                       
----------------------------------|----------------------------------| 
----------------------------------|----------------------------------| 
--3-3-3-3-3-3-3-3-3-3-3-3-3-3-3-3-|--2-2-2-2-2-2-2-2-2-2-2-2-2-2-2-2-| 
----------------------------------|----------------------------------| 


                                                                       
----------------------------------|----------------------------------| 
----------------------------------|----------------------------------| 
--3-3-3-3-3-3-3-3-3-3-3-3-3-3-3-3-|--5-5-5-5-5-5-5-5-5-5-5-5-5-5-5-5-| 
----------------------------------|----------------------------------| 


                                                     
-------------------------|-------------------------| 
-------------------------|-------------------------| 
-------------------------|-------------------------| 
--0----0----0------------|--0----0----0------------| 


                                                        
----------------------------|-------------------------| 
-----7--7-5---5-------------|-----7--7-5---5----------| 
--0---------7-----7--6-5-3--|--0---------7------------| 
----------------------------|------------------0------| 


                                                        
----------------------------|-------------------------| 
-----7--7-5---5-------------|-----7--7-5---5----------| 
--0---------7-----7--6-5-3--|--0---------7------------| 
----------------------------|------------------0------| 


                                                                       
----------------------------------|----------------------------------| 
----------------------------------|----------------------------------| 
----------------------------------|----------------------------------| 
--1-1-1-1-1-1-1-1-3-3-3-3-3-3-3-3-|--5-5-5-5-5-5-5-5-5-5-5-5-5-5-5-5-| 


                                                                       
----------------------------------|----------------------------------| 
----------------------------------|----------------------------------| 
----------------------------------|----------------------------------| 
--1-1-1-1-1-1-1-1-3-3-3-3-3-3-3-3-|--5-5-5-5-5-5-5-5-5-5-5-5-5-5-5-5-| 


                                                                             
----------------------------------|--------------------|-------------------| 
----------------------------------|--------------------|-------------------| 
----------------------------------|--------------------|-------------------| 
--1-1-1-1-1-1-1-1-3-3-3-3-3-3-3-3-|--5----------5------|------5------------| 


                                                        
-------------------|----------------------------------| 
-------------------|----------------------------------| 
-------------------|--0-0-0-0-0-0-0-0-0-0-0-0-0-0-0-0-| 
--5----------------|----------------------------------| 


                                                                       
----------------------------------|----------------------------------| 
----------------------------------|----------------------------------| 
--0-0-0-0-0-0-0-0-0-0-0-0-0-0-0-0-|--0-0-0-0-0-0-0-0-0-0-0-0-0-0-0-0-| 
----------------------------------|----------------------------------| 


                                                                       
----------------------------------|----------------------------------| 
----------------------------------|----------------------------------| 
--0-0-0-0-0-0-0-0-0-0-0-0-0-0-0-0-|--5-5-5-5-5-5-5-5-5-5-5-5-5-5-5-5-| 
----------------------------------|----------------------------------| 


                                                                       
----------------------------------|----------------------------------| 
----------------------------------|----------------------------------| 
--5-5-5-5-5-5-5-5-5-5-5-5-5-5-5-5-|--5-5-5-5-5-5-5-5-5-5-5-5-5-5-5-5-| 
----------------------------------|----------------------------------| 


                                                                       
----------------------------------|----------------------------------| 
----------------------------------|----------------------------------| 
--5-5-5-5-5-5-5-5-5-5-5-5-5-5-5-5-|--0-0-0-0-0-0-0-0-0-0-0-0-0-0-0-0-| 
----------------------------------|----------------------------------| 


                                                                       
----------------------------------|----------------------------------| 
----------------------------------|----------------------------------| 
--0-0-0-0-0-0-0-0-0-0-0-0-0-0-0-0-|--0-0-0-0-0-0-0-0-0-0-0-0-0-0-0-0-| 
----------------------------------|----------------------------------| 


                                                                       
----------------------------------|----------------------------------| 
----------------------------------|----------------------------------| 
--0-0-0-0-0-0-0-0-0-0-0-0-0-0-0-0-|----------------------------------| 
----------------------------------|--1-1-1-1-1-1-1-1-3-3-3-3-3-3-3-3-| 


                                                                       
----------------------------------|----------------------------------| 
----------------------------------|----------------------------------| 
----------------------------------|----------------------------------| 
--5-5-5-5-5-5-5-5-5-5-5-5-5-5-5-5-|--1-1-1-1-1-1-1-1-3-3-3-3-3-3-3-3-| 


                                                                       
----------------------------------|----------------------------------| 
----------------------------------|----------------------------------| 
----------------------------------|----------------------------------| 
--5-5-5-5-5-5-5-5-5-5-5-5-5-5-5-5-|--1-1-1-1-1-1-1-1-3-3-3-3-3-3-3-3-| 


                                                                           
---------------------|-----------|-------------------|-------------------| 
---------------------|-----------|-------------------|-------------------| 
--0------0------0----|----3------|--0----------------|--0----------------| 
---------------------|-----------|-------------------|-------------------| 


                                                               
-------------------|-------------------|--------------------|| 
-------------------|-------------------|--------------------|| 
--0----------------|--0----------------|--------------------|| 
-------------------|-------------------|--5/---0------------||

roll up this ad to continue

share this page

See Also: