E-Chords
Almafuerte

Al Pajaro(Bass guitar)

Almafuerte

Autor: Iorio 


Intro: 
G|---------------------------------------------------------| 
D|---------------------------------------------------------| 
A|-7---7---7---7---5-6-7-7-7-7-7-7-5-6-7-7-7-7-7-7-7-6-5-4-| 
E|---------------------------------------------------------| 

'Un pajaro cantor se me ha ganado el techo hoy' 
G|-----------------------------------------------------------| 
D|-----------------------------------------------------------| 
A|-4-4-4-4-4-4-4-4-5-5-5-5-5-5-5-5-7-5-6-7-5-6-7-5-6-7-6-5-4-| 
E|-----------------------------------------------------------| 

'Creo me avisa que no hay mas, ya se acabo' 
G|-------------------------------------------------------------------| 
D|-------------------------------------------------------------------| 
A|-4-4-4-4-4-4-4-4-0---4-4-4-4-4-4-4-4-0---7-5-6-7-5-6-7-5-6-7-6-5-4-| 
E|-------------------------------------------------------------------| 

'Poder librarte de tu pena es mi soņar' 
G|-------------------------------------| 
D|-------------------------------------| 
A|-2-2-2-2-2-2-2-2-5---5---5---5---5-5-|(x3) 
E|-------------------------------------| 

'Dormite ya... te lo pido por favor!' 
G|-------------------------------------------| 
D|-------------------------------------------| 
A|-4-4-4-4-4-4-4-4-5-----7-6-5-7-6-5-7-6-5-7-| 
E|-------------------------------------------| 

Durante el solo: 
G|---------------------------|-------------------------| 
D|---------------------------|-------------------------| 
A|-4-4-4-4-5-5-5-5---7-7-7-7-|-4-4-4-4-5-5-5-5-7-7-7-7-| 
E|-----------------7---------|-------------------------| 

G|---------------------------------|       G|---------------| 
D|---------------------------------|       D|---------------| 
A|-7-7-7-7-2-2-2-2-5-5-5-5-4-4-4-4-| (x2)  A|-7-7-7-7-7-6-5-| 
E|---------------------------------|       E|---------------| 

'Creo me avisa que no hay mas, ya se acabo' 
G|-------------------------------------------------------------------| 
D|-------------------------------------------------------------------| 
A|-4-4-4-4-4-4-4-4-0---4-4-4-4-4-4-4-4-0---7-5-6-7-5-6-7-5-6-7-6-5-4-| 
E|-------------------------------------------------------------------| 

'Poder librarte de tu pena es mi soņar' 
G|-------------------------------------| 
D|-------------------------------------| 
A|-2-2-2-2-2-2-2-2-5---5---5---5---5-5-| (x3) 
E|-------------------------------------| 

'Dormite ya... te lo pido por favor!' 
G|-------------------------------------------| 
D|-------------------------------------------| 
A|-4-4-4-4-4-4-4-4-5-----7-6-5-7-6-5-7-6-5-7-| 
E|-------------------------------------------| 

Final: 
G|-------------------------| 
D|-------------------------| 
A|-7-----7-----7-----7-----| (varias veces) 
E|-------------------------|

roll up this ad to continue

share this page

See Also: