E-Chords
Almafuerte

A Vos Amigo(Bass guitar)

Almafuerte

Intro: 
G--------------------------------------| 
D--------------------------------------| 
A---7--7--7--7--7------5--5------4--4--| x 4 
E--------------------------------------| 

G-----------------------------------------| 
D-----------------------------------------| 
A----0----------------4----------------7--||x2  
E-----------------------------------------| 

(Riff1) 
G---------------------------------------------| 
D---------------------------------------------| 
A---------------------------------------------| 
E---0-0-0-0----0-0-0-0----5-5-5-5-----5-5-5-5-| 

(Riff2) 
G-------------------------------------------------| 
D-------------------------------------------------| 
A--3--3--3--3--0--0--0--0--7--7--7--7--7--7--7--7-| 
E-------------------------------------------------| 

(Riff3) 
G-------------------------------| 
D-------------------------------| 
A--------7---7---5------4-------| 
E-0--0----------------------7---| 

INTRO 

(RIFF1) 
Esta vez, te lo dedico a vos hermano amigo 
que desde ayer. Andas conmigo este camino. 
Es mía la suerte de poder cantar esto que mando; agradecido. 
A vos arquetipo del nunca aflojar. 
Leal y gamba. Amigo fundido estoy con vos. 

INTRO 

(RIFF1) 
No olvidé, será por eso que aunque yo rezo 
no creo en el perdón, 
si en el destino que nos arrimó. 
Fueron las plateadas cruces de Black Sabbath y su resplandor 
sumadas a la bella séptima estrella y la concha de Dios 
que estamos unidos, 

(Riff2) 
desde el mediodía del domingo aquel 
donde se intercambiaban discos de vinilo. 
Con rumbo al otro lado vamos vos y yo 
vos y yo. 

SOLO: INTRO / (RIFF1) /(Riff2) 

(Riff3) 
No olvidé, será por eso que aun rezo 
no creo en el perdón 
si en el destino que nos arrimó. 
Fueron las plateadas cruces de Black Sabbath y su resplandor 
sumadas a la bella séptima estrella y la concha de Dios 
que estamos unidos, 

(Riff2) 
desde el mediodía del domingo aquel 
donde se intercambiaban discos de vinilo. 
Con rumbo al otro lado vamos vos y yo 
con rumbo al otro lado vos y yo fundido a vos 
No olvidé. 

(Riff1) 

Final: Intro

roll up this ad to continue

share this page

See Also: