E-Chords
Aldo Nova

Foolin Yourself(Bass guitar)

Aldo Nova

Intro: enter at :15 

G|-----------------|-----------------|-----------------|-----------------| 
D|-----------------|-----------------|-----------------|-----------------| 
A|-5r--5r--5r--5r--|-5r--5r--5r--5r--|-5r--5r--5r--5r--|-5r--5r--5r--5-0-| 
E|-----------------|-----------------|-----------------|-----------------| 

Verse 

G|-----------------|-----------------|-----------------|-----------------| x2 
D|-----------------|-----------------|-----------------|-----------------| 
A|-5r--------------|-----------------|-----------------|---------------0-| 
E|-----------------|-----------------|-----------------|-----------------| 

G|-----------------|-----------------|-----------------|-----------------| 
D|-----------------|-----------------|-----------------|-----------------| 
A|-5r----0r--------|-------0r--------|-5r----0r--------|-------0r------0-| 
E|-----------------|-3r--------------|-----------------|-3r--------------| 

G|-----------------|-----------------|-----------------|-----------------| 
D|-----------------|-----------------|-----------------|-----------------| 
A|-5r----0r--------|-------0r--------|-5r--------------|-0-0-0-0-0-0-0-0-| 
E|-----------------|-3r--------------|-------3r--------|-----------------| 

Chorus 

G|-----------------|-----------------|-----------------|-----------------| x2 
D|-----------------|-----------------|-----------------|-----------------| 
A|-5r--5r--5r--5r--|-5r--5r--5r--5r--|-5r--5r----------|-0r--0r--0r--0r--| 
E|-----------------|-----------------|---------3r--3r--|-----------------| 

G|-----------------|-----------------|-----------------|-----------------| 
D|-----------------|-----------------|-----------------|-----------------| 
A|-5r--5r--5r--5r--|-5r--5r--5r--5r--|-5r--5r--5r--5r--|-5r--5r--5r--5-0-| 
E|-----------------|-----------------|-----------------|-----------------| 

Verse 

G|-----------------|-----------------|-----------------|-----------------| x3 
D|-----------------|-----------------|-----------------|-----------------| 
A|-5r--5r--5r--5r--|-5r--5r--5r--5r--|-5r--5r--5r--5r--|-5r--5r--5r--5r--| 
E|-----------------|-----------------|-----------------|-----------------| 

G|-----------------|-----------------|-----------------|-----------------|  
D|-----------------|-----------------|-----------------|-----------------| 
A|-5r--5r--5r--5r--|-5r--5r--5r--5r--|-5r--5r----------|-0-0-0-0-0-0-0-0-| 
E|-----------------|-----------------|---------3r--3r--|-----------------| 

Chorus 

G|-----------------|-----------------|-----------------|-----------------|  
D|-----------------|-----------------|-----------------|-----------------| 
A|-5r--5r--5r--5r--|-5r--5r--5r--5r--|-5r--5r----------|-0r--0r--0r--0r--| 
E|-----------------|-----------------|---------3r--3r--|-----------------| 

G|-----------------|-----------------|-----------------|-----------------|  
D|-----------------|-----------------|-----------------|-----------------| 
A|-5r--5r--5r--5r--|-5r--5r--5r--5r--|-5r--5r----------|-0r--0r--0r--0---| 
E|-----------------|-----------------|---------3r--3r--|---------------3-| 

Solo 

G|-----------------|-----------------|-----------------|-----------------|  
D|-----------------|-----------------|-----------------|-----------------| 
A|---------------0-|-(0)-----------5-|-(5)-------------|-----------------| 
E|-(3)-------------|-----------------|---------------3-|-(3)-----------3-| 

G|-----------------|-----------------|-----------------|-----------------|  
D|-----------------|-----------------|-----------------|-----------------| 
A|---------------0-|-(0)-------------|-5-----0---------|---0---------0---| 
E|-(3)-------------|-----------------|-------------3---|---------3-------| 

G|-----------------|-----------------|-----------------|-----------------|  
D|-----------------|-----------------|-----------------|-----------------| 
A|-5\--------------|-----------------|-----------------|---------------0-| 
E|-----------------|-----------------|-----------------|-----------------| 

Verse 

G|-----------------|-----------------|-----------------|-----------------| x2 
D|-----------------|-----------------|-----------------|-----------------| 
A|-5r--------------|-----------------|-----------------|---------------0-| 
E|-----------------|-----------------|-----------------|-----------------| 

G|-----------------|-----------------|-----------------|-----------------| 
D|-----------------|-----------------|-----------------|-----------------| 
A|-5r----0r--------|-------0r--------|-5r----0r--------|-------0r------0-| 
E|-----------------|-3r--------------|-----------------|-3r--------------| 

G|-----------------|-----------------|-----------------|-----------------| 
D|-----------------|-----------------|-----------------|-----------------| 
A|-5r----0r--------|-------0r--------|-5r--------------|-0-0-0-0-0-0-0-0-| 
E|-----------------|-3r--------------|-------3r--------|-----------------| 

Chorus 

G|-----------------|-----------------|-----------------|-----------------| x4 
D|-----------------|-----------------|-----------------|-----------------| 
A|-5r--5r--5r--5r--|-5r--5r--5r--5r--|-5r--5r----------|-0r--0r--0r--0r--| 
E|-----------------|-----------------|---------3r--3r--|-----------------| 

G|-----------------|-----------------|-----------------|-----------------| x2/to fade 
D|-----------------|-----------------|-----------------|-----------------| 
A|-5r--5r--5r--5r--|-5r--5r--5r--5r--|-5r--5r--5r--5r--|-5r--5r--5r--5r--| 
E|-----------------|-----------------|-----------------|-----------------| 


Hope you enjoy! 

****************** 

r   - release note 
\   - slide down 
(n) - ghost note 

****************** 

roll up this ad to continue

share this page

See Also: