E-Chords
Al-Jadaqui

De Medio Lao(Bass guitar)

Al-Jadaqui

Esta es la version modificada de mi tab.. la tenia mal 
la habia hecho de pronto.. aqui esta ya sin errores y 
con todos los detallitos.. cualquier duda pa mi mail.. 

en el intro 

           riff 1 
g-------------------------------------- 
d-------------------------------------- dos veces 
a---3-0-1-3-1-0------------------------ 
E-1------------------------------------ 
          riff 2 
g-------------------------------------- 
d---3-0-1-3-1-0------------------------ 
a-1------------------------------------  dos veces 
E-------------------------------------- 

En los versos 

           riff 1 
g-------------------------------------- 
d-------------------------------------- 4 veces 
a---3-0-1-3-1-0------------------------ 
E-1------------------------------------ 

           riff 2 
g-------------------------------------- 
d---3-0-1-3-1-0------------------------ 
a-1------------------------------------ 2 veces 
E-------------------------------------- 

           riff 1 
g-------------------------------------- 
d-------------------------------------- 2 veces 
a---3-0-1-3-1-0------------------------ 
E-1------------------------------------ 

Porq ella viene.... 

g-------------------------------------- 
d-------------------------------------- Una sola vez 
a-------------------------------------- 
E-33333333-------66666666-------------- 

vengo de medio lao... 

         riff 1 
g-------------------------------------- 
d-------------------------------------- 4 veces 
a---3-0-1-3-1-0------------------------ 
E-1------------------------------------ 

         riff 2 
g-------------------------------------- 
d---3-0-1-3-1-0------------------------ 
a-1------------------------------------ 2 veces 
E-------------------------------------- 

           riff 1 
g-------------------------------------- 
d-------------------------------------- 2 veces 
a---3-0-1-3-1-0------------------------ 
E-1------------------------------------ 

Porq ella viene en la tarde... 

g-------------------------------------- 
d-------------------------------------- 
a-------------------------------------- 
E-33333333-------66666666-------------- 

vengo de medio lao y estoy ajumao.. 

           riff 1 
g-------------------------------------- 
d--------------------------------------  4 veces 
a---3-0-1-3-1-0------------------------ 
E-1------------------------------------ 

Yeah yeah ah uh oh... de medio lao 

g-------------------------------------- 
d--------------------------------------   4 Veces 
a----33------------1-------8888-------- 
E-------------------------------------- 

y yo yo yo vengo d medio lao 

           riff 1 
g-------------------------------------- 
d--------------------------------------  4 veces 
a---3-0-1-3-1-0------------------------ 
E-1------------------------------------ 


          riff 2 
g-------------------------------------- 
d---3-0-1-3-1-0------------------------ 
a-1------------------------------------ 2 veces 
E-------------------------------------- 


           riff 1 
g-------------------------------------- 
d--------------------------------------  2 veces 
a---3-0-1-3-1-0------------------------ 
E-1------------------------------------ 

porq ella viene 

g-------------------------------------- 
d-------------------------------------- 
a-------------------------------------- 
E-33333333-------66666666-------------- 



         riff 1 
g-------------------------------------- 
d-------------------------------------- 
a---3-0-1-3-1-0------------------------  4 veces.. en la ultima 
E--------------------------------------  va bajand la velocidad y termina en fa 

 y es q la vecina... 

g-------------------------------------- 
d-------------------------------------- 
a----3333------------8888-------------- 
E-------------------------------------- 

La vecina yo la kiero pa comemela... 


g-------------------------------------- 
d-------------------------------------- 
a-----333333333333--------------------- 
E-------------------------------------- 

y es q la vecina es tan bella 

g-------------------------------------- 
d-------------------------------------- 
a----3333------------8888-------------- 
E-------------------------------------- 

y la vecina yo la kiero he... 


g-------------------------------------- 
d-------------------------------------- 
a-----333333333333--------------------- 
E--------------------------------------

roll up this ad to continue

share this page

See Also: