Vitão

Tratamento Perfeito (part. Hodari)(Ukulele chords)

Vitão

Key: Em

roll up this ad to continue

	        Intro: C7M  B7  Em7  G7  
        C7M  B7  Em7  F 

E|----------------7-10-7--------------------| 
B|-b12r10-8-----8---------b12r10-8-10-8-----| 
G|----------7/9-----------------------------| 
D|------------------------------------------| 
A|------------------------------------7-----| 
E|--------8---------8--7--------------------|

E|-------7-10-5/7-5--------7----------------| 
B|-----8-----------------8---10-8/10--------| 
G|-7/9---------------7/9--------------------| 
D|------------------------------------------| 
A|------------5-----------------------------| 
E|------------------------------8-----------| 

E|------------------------------------------| 
B|-b12r10-8/10--12-8/10-8-------------------| 
G|------------------------------------------| 
D|------------------------------------------| 
A|------------------------------------------| 
E|-----------------7------------------------|

E|------------------------------------------| 
B|-----8---8/10-12-13-----------------------| 
G|-7/9---9----------------------------------| 
D|------------------------------------------| 
A|------------------------------------------| 
E|------------------------------------------| 

Verse 1:

C7M Oi, baby B7 Acabei de ver a mensagem Em7 Sorry, tava na passagem G7 Sabe como é viagem C7M Mas tu é meu mozão, nega B7 Nem tem como te negar D7(9-) Em7 Ebº Dm7 Minha vó já perguntou quando é que a gente vai casar G7(13) Doidera, né?
C7M B7 Em7 Meu carma tem sabor, perfeito pra você G7 Remédio pra curar a dor, e eu não tô te cobrando nada C7M B7 C7M Tenho o tratamento perfeito, posições que você não conhece B7 Eu sou aquele um somado ao seu meia-oito, pensa bem C7M Deixa B7 D7(9-) Em7 Deixa que eu te levo pra tua casa G7 C7M Já te conquistei, não tem mistério B7 D7(9-) Em7 E o meu coração já é só seu Ebº Dm7 Tão simples quanto eu G7(13) Eu canto pra tu C7M Deixa B7 D7(9-) Em7 Deixa que eu te mostro sem certeza G7 C7M Que a tristeza e a mágoa já passou B7 D7(9-) Em7 Você que manda aqui, eu te enlouqueço, meu amor Ebº Dm7 G7(13) Meu amor, meu amor

Verse 2:

C7M Já peguei minha mochila, sabe B7 Pode ficar tranquila, cabe Em7 Coração de menina chave G7 Minha flor e tequila C7M Aniquila a minha vontade de tu B7 D7(9-) Camarim já vai lotar de urubu Em7 Ebº E tu me dizendo: vai, vagabundo, vai lá Dm7 G7(13) Porra, por que cê vai tanto pro Sul?
C7M B7 Em7 Meu carma tem sabor, perfeito pra você G7 Remédio pra curar a dor, e eu não tô te cobrando nada C7M B7 C7M Tenho o tratamento perfeito, posições que você não conhece B7 Eu sou aquele um somado ao seu meia-oito, pensa bem C7M Deixa B7 D7(9-) Em7 Deixa que eu te levo pra tua casa G7 C7M Já te conquistei, não tem mistério B7 D7(9-) Em7 E o meu coração já é só seu Ebº Dm7 Tão simples quanto eu G7(13) Eu canto pra tu C7M Deixa B7 D7(9-) Em7 Deixa que eu te mostro sem certeza G7 C7M Que a tristeza e a mágoa já passou B7 D7(9-) Em7 Você que manda aqui, eu te enlouqueço, meu amor Ebº Dm7 G7(13) Meu amor, meu amor C7M Deixa B7 D7(9-) Em7 Deixa que eu te levo pra tua casa G7 C7M Já te conquistei, não tem mistério B7 D7(9-) Em7 E o meu coração já é só seu Ebº Dm7 Tão simples quanto eu G7(13) Eu canto pra tu C7M Deixa B7 D7(9-) Em7 Deixa que eu te mostro sem certeza G7 C7M Que a tristeza e a mágoa já passou B7 D7(9-) Em7 Você que manda aqui, eu te enlouqueço, meu amor Ebº Dm7 G7(13) Meu amor, meu amor

Written by Gee Rocha / Go Dassisti / Hodari / Vitão

See Also: