E-Chords
Tanguito

Sutilmente A Susana(Ukulele chords)

Tanguito

Key: C
e ----------------------------------------------- 
B --------0------0------------------------------- 
G ----0---0---0--0----0---0---0---0---0---0---0-- 
D ---2---2---2---2---1---1---1---2---2---1---1--- 
A --3---3---3---3---2---2---2---3---3---2---2---- 
E -3---3---3---3---2---2---2---3---3---2---2----- 
Cmaj7 Am Susana, déjame ser Cmaj7 Am como yo soy. F G No cambia nada con que use C Am una camisa, o una corbata F G si da lo mismo, es gusto mío, C Am o un desafío, o un desafío. D Dsus4 D No cambia nada. Dm Dsus4 Dm no cambia nada. F G No cambia nada. Cmaj7 Am Recuerda aquella noche Cmaj7 Am en la plaza aquella F G en que te dije que te quería, C Am y no fue en vano, y no fue en vano. F G Te necesitaba, y te quiero. Cmaj7 Am Tal vez pases con otro Cmaj7 Am que te diga al oído F G esas frases que nadie C Am como yo te dirá F G y ahogando para siempre C Am mi amor inadvertido F G te amaré mas que nunca C Am y jamás lo sabrás. D Dsus4 D Y jamás... Dm Dsus4 Dm lo sabrás. F G y jamás lo sabrás Tarareo: Cmaj7 Am Oyeme, déjame ser Cmaj7 Am como yo soy. F G No cambia nada con que use C Am una camisa, o una corbata F G si da lo mismo, es gusto mío, C Am o un desafío, o un desafío. D Dsus4 D No cambia nada. Dm Dsus4 Dm no cambia nada. F G No cambia nada. Cmaj7 Oyeme Cmaj7 Oyeme Cmaj7 Te pido oyeme Cmaj7 Te pido oyeme
e ---------------------------------- 
B --------0----------------0-------- 
G ----0---0---0---0----0---0---0---0 
D ---2---2---1---1----2---2---1---1- 
A --3---3---2---2----3---3---2---2-- 
E -3---3---2---2----3---3---2---2--- 

(tocar en forma de acorde) 
e -0-0-0-0-0-0-0-0-0 
B -0-0-0-0-0-0-0-0-0 
G -0-0-0-0-0-0-0-0-0 
D -2-2-2-2-2-1-1-1-2 
A -3-3-3-3-3-2-2-2-3 
E -3-3-3-3-3-2-2-2-3

roll up this ad to continue

share this page

See Also: