Seafret

Love Won't Let Me Leave(Ukulele chords)

Seafret

Key: D

roll up this ad to continue

	        Intro: D  Em7  Bm  A  D  G 
E|------------------------------------------| 
B|---7---7---7---7---7---7-----8---8--------| 
G|------------------------------------------| 
D|------------------------------------------| 
A|-5---5---5---5---5---5---5/7---7----------| 
E|------------------------------------------| 

E|------------------------------------------| 
B|---3---3---3---3---3---3---3---3---2---2--| 
G|------------------------------------------| 
D|------------------------------------------| 
A|-2---2---2---2---2---2---2---2---0---0---0| 
E|------------------------------------------| 

E|------------------------------------------| 
B|-2---2---2---2---3---3---0---0---0---3---0| 
G|------------------------------------------| 
D|------------------------------------------| 
A|---0---0---0---2---2----------------------| 
E|-----------------------3---3---3---3---3--| 

E|------------------------------------------| 
B|---0---0----------------------------------| 
G|------------------------------------------| 
D|------------------------------------------| 
A|------------------------------------------| 
E|-3---3------------------------------------| 

Verse 1:

D Searching for some kind of meaning Bm Answers I can believe in A Bm G Something now that you're not around D I know it's complicated Bm Someday I'll have to face it A Bm G But I don't think that I can do it now
  G                A             Bm 
E|---------------------------0--------------| 
B|---0---0---3---0---2---2-------2---3---3--| 
G|------------------------------------------| 
D|------------------------------------------| 
A|-----------------0---0---0---0---2---2---2| 
E|-3---3---3---3----------------------------| 

E|-2---7---7---5---7------------------------| 
B|------------------------------------------| 
G|------------------------------------------| 
D|------------------------------------------| 
A|---5---5---5---5---5----------------------| 
E|------------------------------------------| 
  G                        A 
E|-----------------------------------2------| 
B|---0---0---3---0---0---3---2---2-------2--| 
G|------------------------------------------| 
D|------------------------------------------| 
A|-------------------------0---0---0---0----| 
E|-3---3---3---3---3---3--------------------| 

Pre-Chorus

G A I can't deny it, the harder I fight Bm The deeper it pulls me down G Stuck in the same place A I can't even see straight
G D Well you knock me off my feet Bm A Yeah, you made a mess of me G But without you D A I just feel so incomplete G D I can see that open road Bm A But I just can't let you go G There's no air to breathe D A It still brings me to my knees D Love won't let me leave

Verse 2:

D I've been walking the pavement Bm Lost track of the days that I spent A D G Running circles around this town

Pre-Chorus

G A I can't deny it, the harder I fight Bm The deeper it pulls me down G Stuck in the same place A I can't even see straight
G D Well you knock me off my feet Bm A Yeah, you made a mess of me G But without you D A I just feel so incomplete G D I can see that open road Bm A But I just can't let you go G There's no air to breathe D A It still brings me to my knees D Love won't let me leave

Bridge:

D The road is long, the wait goes on for my love Bm G I've had enough of packing up for somewhere new D Standing strong, where I belong for my love Bm G I've had enough of packing up for somewhere new For somewhere new
G D Well you knock me off my feet Bm A Yeah, you made a mess of me G But without you D A I just feel so incomplete G D I can see that open road Bm A But I just can't let you go G There's no air to breathe D A It still brings me to my knees D Love won't let me leave

See Also: