Myslovitz

Wieża Melancholii(Ukulele chords)

Myslovitz

Key: Bm

roll up this ad to continue

	        
Intro 
    Bm      Em      D       A 
e|--2-------0-------2-------0------------------------------------------------| 
B|--3-------0-------3-------2------------------------------------------------| 
G|--4-------0-------2-------2------------------------------------------------| 
D|--4-------2-------0-------2------------------------------------------------| 
A|--2-------2-------x-------0------------------------------------------------| (x4) 
E|--x-------0-------x-------x------------------------------------------------| 

e|---------------------------------------------------------------------------| 
B|---------------------------------------------------------------------------| 
G|-10b11-hold--10br11-9~-----------------------------------------------------| 
D|---------------------------------------------------------------------------| 
A|---------------------------------------------------------------------------| 
E|---------------------------------------------------------------------------| 

Verse 
    Bm      Em      D       A 
e|--2-------0-------2-------0------------------------------------------------| 
B|--3-------0-------3-------2------------------------------------------------| 
G|--4-------0-------2-------2------------------------------------------------| 
D|--4-------2-------0-------2------------------------------------------------| 
A|--2-------2-------x-------0------------------------------------------------| (x8) 
E|--x-------0-------x-------x------------------------------------------------| 

(Bends on lead guitar/Bend gitara prowadz?ca) 
e|---------------------------------------------------------------------------| 
B|---------------------------------------------------------------------------| 
G|-12b14br12---11br10-9------------------------------------------------------| 
D|---------------------------------------------------------------------------|  
A|---------------------------------------------------------------------------| 
E|---------------------------------------------------------------------------| 

Chorus 
    Bm      Em      D       A 
e|--2-------3-------0-------0------------------------------------------------| 
B|--2-------3-------0-------2------------------------------------------------| 
G|--3-------0-------0-------2------------------------------------------------| 
D|--4-------0-------2-------2------------------------------------------------| 
A|--4-------2-------2-------0------------------------------------------------| (x8) 
E|--2-------3-------0-------x------------------------------------------------| 

Verse 
    Bm      Em      D       A 
e|--2-------0-------2-------0------------------------------------------------| 
B|--3-------0-------3-------2------------------------------------------------| 
G|--4-------0-------2-------2------------------------------------------------| 
D|--4-------2-------0-------2------------------------------------------------| 
A|--2-------2-------x-------0------------------------------------------------| (x8) 
E|--x-------0-------x-------x------------------------------------------------| 

(Bends on lead guitar/Bend gitara prowadz?ca) 
e|---------------------------------------------------------------------------| 
B|---------------------------------------------------------------------------| 
G|-14b16---14b16-~-----------------------------------------------------------| 
D|---------------------------------------------------------------------------|  
A|---------------------------------------------------------------------------| 
E|---------------------------------------------------------------------------| 

Outro 
'...siedz? sam w tej wie?y bez dna' 
(Keyboard writted for guitar) (Rhythm) 
e|---------------------------------------------------------------------------| 
B|---------------------------------------------------------------------------| 
G|-11--11--11--11--12--12--12--12--11--11--11--11-12-9--9--12--12------------| 
D|---9---9---9---9---9---9---9---9---12--12--12-------7--7---11--11----------| 
A|---------------------------------------------------------------------------| 
E|---------------------------------------------------------------------------| 

e|---------17--15--14~--17--12~----------------------------------------------| 
B|-12~-12--------------------------------------------------------------------| 
G|---------------------------------------------------------------------------| 
D|---------------------------------------------------------------------------| 
A|---------------------------------------------------------------------------| (x2) 
E|---------------------------------------------------------------------------| 

e|---------------------------------------------------------------------------| 
B|---------------------------------------------------------------------------| 
G|---------14-12--11~---14---9-----------------------------------------------| 
D|-9~---9--------------------------------------------------------------------| 
A|---------------------------------------------------------------------------| 
E|---------------------------------------------------------------------------| 


************************************ 

| x   Dead note 
| b   Bend 
| br  Bend release 
| ~   Vibrato 

************************************
	        
share this page

See Also: