E-Chords
Los Invasores De Nuevo León

Que Valor De Mujer(Ukulele chords)

Los Invasores De Nuevo León

Key: A
(Intro) 

    E7                A                  E7 
e---4---4---4---5-2-2-0-0---0--|-0-0-0-2-0-0----------| 
b-5-5---5---5---7-3-3-2-2-0-2--|-2-2-2-3-2-2-0-0---0--| 
g-6---4---4---4----------------|-----------------2----| 
d------------------------------|----------------------| 
a------------------------------|----------------------| 
e------------------------------|----------------------| 

            A     E7        A 
e-0-0-0-2-0----|--0-0-0-2-0----| 
b-0-0-0-3-2-2--|--0-0-0-3-2-2--| 
g-----------2--|------------2--| 
d--------------|---------------| 
a--------------|---------------| 
e--------------|---------------| 
A E7 A Pero qué valor de mujer E7 Para ofender a quien le dio casi la vida Y sin razón, y sin tener porque A Abrió en su corazón, Una onda herida A E7 A Pero qué valor de mujer A7 D F#7 Bm Para ofender así a quien tanto la adora E7 A A quien la supo hacer F#7 Bm E7 A Toda una gran mujer Y una gran señora E7 A Señora, la felicitó E7 A Nada más por ser mujer E7 A No por la acción y la manera de ofender E7 A Lo más valioso y más difícil de tener E7 A En verdad yo no he podido comprender E7 A La cruel manera de ofender a un hombre fiel E7 A En verdad qué valor E7 A Qué valor, que valor de mujer (entra solo similar a intro)
    E7                A                  E7 
e---4---4---4---5-2-2-0-0---0--|-0-0-0-2-0-0----------| 
b-5-5---5---5---7-3-3-2-2-0-2--|-2-2-2-3-2-2-0-0---0--| 
g-6---4---4---4----------------|-----------------2----| 
d------------------------------|----------------------| 
a------------------------------|----------------------| 
e------------------------------|----------------------| 

            A     E7        A 
e-0-0-0-2-0----|--0-0-0-2-0----| 
b-0-0-0-3-2-2--|--0-0-0-3-2-2--| 
g-----------2--|------------2--| 
d--------------|---------------| 
a--------------|---------------| 
e--------------|---------------| 
A E7 A Pero qué valor de mujer A7 D F#7 Bm Para ofender así a quien tanto la adora E7 A A quien la supo hacer F#7 Bm E7 A Toda una gran mujer Y una gran señora E7 A Señora, la felicitó E7 A Nada más por ser mujer E7 A No por la acción y la manera de ofender E7 A Lo más valioso y más difícil de tener E7 A En verdad qué valor E7 A Qué valor, que valor de mujer

roll up this ad to continue

share this page

See Also: