Léo Santana

Invocada(Ukulele chords)

Léo Santana

Key: C

roll up this ad to continue

Capo on 1st fret
	        
 
Intro 

E|-----0-----------------------------------------------| 
B|-1-1---1-------0-0-3-0-------------------------------| 
G|-----------------------------------------------------| 
D|----------0------------0-----------------------------| 
A|------------2------------3---------------------------| 
E|-----------------------------------------------------|
C Eu te amava, não posso negar G Também sofria, não posso mentir F Agora sou eu C Que não te quero mais aqui Aprendi a viver sem você G Superei a ilusão que eu tinha F C Agora tô livre e solteira na pista Se conforma, eu não vou voltar G Agora tu vai ver o que é sofrer F C Vou te ensinar como se bota pra fuder G Desço empinando a bunda C Subo com a mão no cabelo G Quebro, de ladinho, quebro C Na boquinha eu levo o dedo G Desço empinando a bunda C Subo com a mão no cabelo G Quebro, de ladinho, quebro C Na boquinha eu levo o dedo Se eu me invocar G Desço empinando a bunda C Subo com a mão no cabelo G Quebro, de ladinho, quebro C Na boquinha eu levo o dedo G Desço empinando a bunda C Subo com a mão no cabelo G Quebro, de ladinho, quebro C Na boquinha eu levo o dedo Intro
E|-----0-----------------------------------------------| 
B|-1-1---1-------0-0-3-0-------------------------------| 
G|-----------------------------------------------------| 
D|----------0------------0-----------------------------| 
A|------------2------------3---------------------------| 
E|-----------------------------------------------------|
C Você me ama, não dá pra negar G E tá sofrendo, não dá pra mentir F Para de ser boba C Que eu te quero bem aqui Eu não posso viver sem você G Você também não fica sozinha F Encontro marcado C A gente se esbarra na pista Diz que vai, mas só pensa em voltar G Sabe que a gente tem tudo a ver F Quando bate o grave C A gente bota pra ferver G Desço empinando a bunda C Subo com a mão no cabelo G Quebro, de ladinho, quebro C Na boquinha eu levo o dedo G Desço empinando a bunda C Subo com a mão no cabelo G Quebro, de ladinho, quebro C Na boquinha eu levo o dedo Se eu me invocar G Desço empinando a bunda C Subo com a mão no cabelo G Quebro, de ladinho, quebro C Na boquinha eu levo o dedo G Desço empinando a bunda C Subo com a mão no cabelo G Quebro, de ladinho, quebro C Na boquinha eu levo o dedo

Written by Jeferson Almeida dos Santos Junior/Ludmilla Oliveira da Silva/Umberto da Silva Tavares

See Also: