Lala Lala

Siren 042(Ukulele chords)

Lala Lala

Key: B

roll up this ad to continue

	        
Intro 
e|--------------------------------------------| 
B|--------------------------------------------| 
G|---4-------4----4----4------4----4----------| 
D|---------2----------------2-----------------| 
A|-2------------4----2-----------4------------| 
E|--------------------------------------------| 
(also plays during verse 1) verse 1 B E C#m And I'm sorry I was evil B E C#m I don't do that anymore B E C#m I just copy other people B E C#m Try to forget what was before Interlude B E C#m
e|-2-4-2---2--------------------| 
B|-------4--4-2-4-2-------------| 
G|------------------4-1-4-------| x2 
D|------------------------------| 
A|------------------------------| 
E|------------------------------|
B E This is the punishment (Don't call it off) B E It's exactly what I wanted (Don't call it off) B E Here is the punishment (It's all I have) B E How I always get excited (Don't call it off) F# E B E There was a siren that was ringing in my head B E But I wasn't listening B E So I did what I did B E I ate what I was fed B E C#m F# Now there's something else instead of something
Interlude B E C#m
e|-2-4-2---2--------------------| 
B|-------4--4-2-4-2-------------| 
G|------------------4-1-4-------| x2 
D|------------------------------| 
A|------------------------------| 
E|------------------------------| 
(Don't call it off Don't call it off, off Don't call it off, off Don't call it off)
B E This is the punishment (Don't call it off) B E It's exactly what I wanted (Don't call it off) B E Here is the punishment (It's all I have) B E B How I always get excited (Don't call it off) E B (Don't call it off, E B don't call it off, E B E it's all I have)
Outro B E And I'm sorry I was evil B E I'm in trouble from before B E Sometimes I feel like other people N.C I don't remember anymore

See Also: