Kleberiano

Chupacu(Ukulele chords)

Kleberiano

Key: Bm

roll up this ad to continue

	        
Intro: 

Tab - Intro 

Parte 1 De 2 
E|-------------------------------------------| 
B|-------------------------------------------| 
G|-------0---------0---------0---------0-----| 
D|-----2---2-----4---4-----2---2-----4---4---| 
A|---2---------4---------2---------4---------| 
E|-------------------------------------------| 

Parte 2 De 2 
E|-------------------------------------------------| 
B|-------------------------------------------------| 
G|-------0---------0---------0---------0---0---0---| 
D|-----2---2-----4---4-----2---2-----4---4---4---4-| 
A|---2---------4---------2---------4---------------| 
E|-------------------------------------------------| 


Tab - Riff 1 

E|-------------------------------------------| 
B|-------------------------------------------| 
G|-------0---------0---------0---------0-----| 
D|-----2---2-----4---4-----2---2-----4---4---| 
A|---2---------4---------2---------4---------| 
E|-------------------------------------------|

Verse 1:

Riff 1 Ele anda noite na floresta Tentando encontrar alguma brecha Para invadir sua casinha E abocanhar sua bundinha Ele caminha todo torto O seu rosto parece um aborto Sua cabea de algodo B5 C#5 Se der mole, pega o seu boto
B5 D5 C#5 D5 B5 Ele vai abocanhar seu cu B5 D5 C#5 D5 B5 O nome dele chupacu B5 D5 C#5 B5 Ele vai correr atrs de tu B5 D5 C#5 D5 B5 O nome dele chupacu
( B5 A5 G5 ) ( B5 A5 G5 A5 )

Verse 2:

Riff 1 No meio da noite eu acordei E uma coisa estranha eu escutei Um barulho bem no meu quintal Ser que algum animal? Ento eu abri a minha porta E fui no quintal averiguar Eu no tenho medo de bandido Se for um ladro, eu vou matar
Tab - Riff 2 

E|------------------------------------------| 
B|------------------------------------------| 
G|----0-0-0-0--0-0-0-0--0-0-0-0--0-0-0-0----| (3x) 
D|----2-2-2-2--4-4-4-4--2-2-2-2--4-4-4-4----| 
A|----2-2-2-2--4-4-4-4--2-2-2-2--4-4-4-4----| 
E|------------------------------------------| 
      ​↓ ↓ ↓ ↓  ​↓ ↓ ↓ ↓  ​↓ ↓ ↓ ↓  ​↓ ↓ ↓ ↓ 

E|------------------------------------------| 
B|------------------------------------------| 
G|----0-0-0-0--0-0-0-0----------------------| 
D|----2-2-2-2--4-4-4-4----------------------| 
A|----2-2-2-2--4-4-4-4----------------------| 
E|------------------------------------------| 
      ​↓ ↓ ↓ ↓  ​↓ ↓ ↓ ↓
Riff 2 Foi a que ele apareceu E a minha perna estremeceu Ele veio em minha direo B5 C#5 O chupacu quer o meu boto
B5 D5 C#5 D5 B5 Ele vai abocanhar meu cu B5 D5 C#5 D5 B5 O nome dele chupacu B5 D5 C#5 D5 B5 Ele j abocanhou meu cu B5 D5 C#5 D5 B5 O nome dele chupacu
( B5 A5 G5 ) ( B5 A5 G5 A5 ) Solo: B5 D5 C#5 D5 B5 B5 D5 C#5 D5 B5 B5 D5 C#5 D5 B5 B5 A5 G5 B5 A5 G5 A5
Tab - Solo 

Parte 1 De 4 
E|--------------------------------------------------------| 
B|--------------------------------------------------------| 
G|--------------------9-----------------------------------| 
D|---------9------7-9---8~--8~--8~--8-8-9p7---------------| 
A|-------9-----------------------------------9--9p7-------| 
E|--7--7------10--------------------------------------10--|

Parte 2 De 4 
E|--------------------------------------------------------| 
B|--------------------------------------------------------| 
G|--------------------9------------------7-9-9b11--9p7----| 
D|---------9------7-9---8~--8~--8~-8-8h9---------------9--| 
A|-------9------------------------------------------------| 
E|--7--7------10------------------------------------------| 

Parte 3 De 4 
E|-----------------------------------------------------------| 
B|-----------------------------------------------------------| 
G|--------------------9-----------7-9-9b11-9b11-9b11--9p7----| 
D|---------9------7-9---8~--8~--8-------------------------9~-| 
A|-------9---------------------------------------------------| 
E|--7--7------10---------------------------------------------| 

Parte 4 De 4 
E|-----------------------------------------------------------| 
B|---------10----10------------------------------------------| 
G|----7-9--9b11--9b11--9b11r9p7-9~---------------------------| 
D|--9--------------------------------------------------------| 
A|-----------------------------------------------------------| 
E|-----------------------------------------------------------| 

Written by Kleberiano

share this page

See Also: