Jona Lewie

Stop The Cavalry(Ukulele chords)

Jona Lewie

Key: A

roll up this ad to continue

	        
Intro: A E (2x) 

A                  E 
Hey, Mr. Churchill comes over here 
A                  E 
To say we're doing splendidly 
A                  E 
But it's very cold out here in the snow 
A                        E 
Marching to win from the enemy 
A                     E 
Oh, I say it's tough, I have had enough 
A                E    A 
Can you stop the Cavalry? 

 
  A              E           A           E 
E|-/11-11-11-9-8--9-9-9-8-----8-8-8--------------| 
B|------------------------11--------11-9--11-8---| 
G|---------------------------------------------8-| 
D|-----------------------------------------------| 
A|-----------------------------------------------| 
E|-----------------------------------------------| 

   A              E           A           E 
E|-/11-11-11-9-8--9-9-9-8-----8-8-8-----------8----| 
B|------------------------11--------11-9--11-------| 
G|----------------------------------------------11-| 
D|-------------------------------------------------| 
A|-------------------------------------------------| 
E|-------------------------------------------------| 

   A              E           A       E     A 
E|-/11-11-11-9-8--9-9-9-8-----8---------------| 
B|------------------------11----9-8-9-11--8-9-| 
G|--------------------------------------------| 
D|--------------------------------------------| 
A|--------------------------------------------| 
E|--------------------------------------------| 
A E I have had to fight, almost every night A E Down throughout these centuries A E That is when I say, oh yes, yet again A E A Can you stop the Cavalry? E A Mary Bradley waits at home E A In the nuclear fall-out zone E A Wish I could be dancing now E A In the arms of the girl I love E Dub a dub a dum dum Dub a dub a dum A Dub a dum dum dub a dub Dub a dub a dum E Dub a dub a dum dum Dub a dub a dum A Dub a dum dum dub a dub Dub a dub a dum G D Wish I was at home for Christmas A D A D (x2) D A D A (x2) A E Bang, that's another bomb on another town A E While Luzar and Jim have tea A E If I get home, live to tell the tale A E I'll run for all presidencies A E A E A If I get elected I'll stop- I will stop the Cavalry
  A              E           A           E 
E|-/11-11-11-9-8--9-9-9-8-----8-8-8--------------| 
B|------------------------11--------11-9--11-8---| 
G|---------------------------------------------8-| 
D|-----------------------------------------------| 
A|-----------------------------------------------| 
E|-----------------------------------------------| 

   A              E           A           E 
E|-/11-11-11-9-8--9-9-9-8-----8-8-8-----------8----| 
B|------------------------11--------11-9--11-------| 
G|----------------------------------------------11-| 
D|-------------------------------------------------| 
A|-------------------------------------------------| 
E|-------------------------------------------------| 

   A              E           A       E     A 
E|-/11-11-11-9-8--9-9-9-8-----8---------------| 
B|------------------------11----9-8-9-11--8-9-| 
G|--------------------------------------------| 
D|--------------------------------------------| 
A|--------------------------------------------| 
E|--------------------------------------------| 
E Dub a dub a dum dum Dub a dub a dum A Dub a dum dum dub a dub Dub a dub a dum E Dub a dub a dum dum Dub a dub a dum A Dub a dum dum dub a dub Dub a dub a dum G D Wish I was at home for Christmas E A Wish I could be dancing now E A In the arms of the girl I love E A Mary Bradley waits at home E A In the nuclear fall-out zone G D Wish I was at home for Christmas A D A D (x2) D A D A (2x)

Written by Jona Lewie

share this page

See Also: