Fidlar

Alchoholic(Ukulele chords)

Fidlar

Key: A

roll up this ad to continue

	        I want to give credit to Snoepsoep who did a good job tabbing this out I just made some correction I think 
this should be 100% correct. 



Chords used 
     A    F#   D    E/B   C#/F#   A/D 
e|---5----2-----------------2------------------------------| 
B|---5----2----7-----9------2------7-----------------------| 
G|---6----3----7-----9------3------7-----------------------| 
D|---7----4----7-----9------4------7-----------------------| 
A|---7----4----5-----7------4------5-----------------------| 
E|---5----2----------7-------------5-----------------------|
Verse A Hit the wall Iím cominí with a fever F# Dropped the ball I didn't think Iíd see her D And now Iím runnin' round looking for another town E/B Bartender broke my fuckin' liver Verse A And now I'm back to living with my parents F# It's kinda cool I never have to pay rent D But I think about you think about you all the time E/B Guess I'm gonna have to finally face it
A That I'm an alca -alca -alcoholic C#/F# Broken heart don't hurt, already got it A/D And when I think about you, I think about you all the time E/B But you never never let finish
e|----------------------------4-------------------------| 
B|------------------------5-7---------------------------| 
G|--6--6-6-6-6-6-6-6------------------------------------| 
D|--7--7-7-7-7-7-7-7------------------------------------| 
A|--7--7-7-7-7-7-7-7------------------------------------| 
E|--5--5-5-5-5-5-5-5------------------------------------| 
Verse A Coked out and talkin' like a tweaker F# Short straw and starin' In a mirror D And I tell myself I tell everything is fine E/B Sore throat and just a little fever Verse A And now I'm driving drunk and double vision F# Thinking that I'm punk and on a mission D When I figure out I figure out my fuckin' life E/B Red lights and full head on collision
A I'm an alca alca alcoholic C#/F# Broken heart don't hurt, already got it A/D And when I think about ya, I think about you all the time, E/B Guess I'm gonna have to finally face it
share this page

See Also: