David de la Luz

Cag„ľamita Banquetera(Ukulele chords)

David de la Luz

Key: E

roll up this ad to continue

	        
Intro: 

e|-4/7-7-7-7-5-4-2-4-4-4-2-4-|
B|---------------------------| 
G|---------------------------| 
D|---------------------------|
A|---------------------------|  
E|---------------------------| 

e|-4/7-7-7-7-5-4-2-4-4-4-2-0-4-4-2-4/7-5-4-5-4-|
B|---------------------------------------------| 
G|---------------------------------------------| 
D|---------------------------------------------|
A|---------------------------------------------|  
E|---------------------------------------------| 
E C#m Y llamame un pobre pero asi, te quiero a ti E C#m mi sonrisa aparece cuando al fin, te veo feliz A B E C#m vamos a paquear, la ropa modelar A B E C#m vamos a comer, unas quecas yo que se A B E C#m hay que conocer lugares por doquier A B E C#m una caguamita banquetera sabe bien A B pero todo esto junto a ti
e|-4/7-7-7-7-5-4-2-4-4-4-2-4-|
B|---------------------------| 
G|---------------------------| 
D|---------------------------|
A|---------------------------|  
E|---------------------------| 

e|-4/7-7-7-7-5-4-2-4-4-4-2-0-4-4-2-4/7-5-4-5-4-|
B|---------------------------------------------| 
G|---------------------------------------------| 
D|---------------------------------------------|
A|---------------------------------------------|  
E|---------------------------------------------|
E C#m Solo traigo 30 pesos en el pantalon E C#m unos chetos y una coca para el vapor E C#m si tu te vas E C#m sin voltear atras A B E C#m vamos a paquear, la ropa modelar A B E C#m vamos a comer, unas quecas yo que se A B E C#m hay que conocer lugares por doquier A B E C#m una caguamita banquetera sabe bien A B E C#m una caguamita banquetera sabe bien A B E C#m una caguamita banquetera sabe bien A B E C#m una caguamita banquetera sabe bien A B E C#m una caguamita banquetera sabe bien A B E C#m una caguamita banquetera sabe bien A B pero todo esto junto a ti
share this page

See Also: