Carolina de Deus

Dores De Crescimento(Ukulele chords)

Carolina de Deus

Key: A

roll up this ad to continue

	        Intro 

Tab - Intro 

E|---------5---------5---7---9---------12-----------12----| 
B|-------5------5--------------------9-------9------------| 
G|-----6------6--------------------9------9---------------| 
D|---7------------7--7----------11-------------11---11----| 
A|--------------------------------------------------------| 
E|--------------------------------------------------------|
E|--------5---------5---7---9--------5--------------------| 
B|------5------5-------------------6-----6--------6p5-----| 
G|----7------7-------------------7-----7--------7------7--| 
D|--7------------7--7----------7-----------7--7-----------| 
A|--------------------------------------------------------| 
E|--------------------------------------------------------|

Verse 1:

A C#m7 Se me trancam em mim mesma D2 Dm Não me conformo cá dentro A C#m7 Cresço além de mim D2 Dm Afastando-me do centro F#m C#m7 Rio e choro, tal como o céu D2 Dm Mudo, e é normal mudar porque eu
A C#m7 Dia sim, dia talvez Bm7 Dm Tenho dores de crescimento F#m C#m7 Dia não, de quando em vez Bm7 Dm Cresço mais do que aparento
Tab - Interlúdio 

E|---------5---------5---7---9---------12-----------12--------| 
B|-------5------5--------------------9-------9----------------| 
G|-----6------6--------------------9------9-------------------| 
D|---7------------7--7----------11-------------11---11--------| 
A|------------------------------------------------------------| 
E|------------------------------------------------------------|
E|--------5---------5---7---9--------5------------------------| 
B|------5------5-------------------6-----6--------6p5---------| 
G|----7------7-------------------7-----7--------7------7------| 
D|--7------------7--7----------7-----------7--7---------------| 
A|------------------------------------------------------------| 
E|------------------------------------------------------------|

Verse 2:

A C#m7 Se me pedem pra ficar D2 Dm Viro costas e nem tento A C#m7 Voo além de mim D2 Dm Afastando-me com o vento F#m C#m7 Sou de luas, tal como o céu D2 Dm Mudo, e é normal mudar porque eu
A C#m7 Dia sim, dia talvez Bm7 Dm Tenho dores de crescimento F#m C#m7 Dia não, de quando em vez Bm7 Dm Cresço mais do que aparento

Bridge:

F#m C#m7 Dia sim, dia não Bm7 Tolda-se a razão Dm Falha o coração
A C#m7 Dia sim, dia talvez Bm7 Dm Tenho dores de crescimento F#m C#m7 Dia não, de quando em vez Bm7 Dm Cresço mais do que aparento A C#m7 Dia sim, dia talvez Bm7 Dm Tenho dores de crescimento F#m C#m7 Dia não, de quando em vez Bm7 Dm Cresço mais do que aparento

Bridge:

F#m C#m7 Dia sim, dia não Bm7 Tolda-se a razão Dm A Falha o coração

Written by Tiago Nogueira / Mariana Moreira

See Also: