CAOSCRACIA

Terra De Ninguém(Ukulele chords)

CAOSCRACIA

Key: C

roll up this ad to continue

	        
Intro C  F  C  F 

Tab - Intro 

  C            F 
E|-3-1-0-3-1-0----1----| (3x) 
B|--------------1-1----| 
G|---------------------| 
D|---------------------| 
A|---------------------| 
E|---------------------|
  C         F 
E|-3-1-0-3-5-----------| 
B|-----------6---------| 
G|-------------5-------| 
D|---------------------| 
A|---------------------| 
E|---------------------|

Verse 1:

C Onde estará F A nossa segurança C F Se são seres humanos lá fora C F O que faremos agora Dm Intolerância F Vemos isso todo dia Dm Desconfiança F C Tenho medo da polícia F Da polícia

Verse 2:

C Não restará F Um pingo de esperança C F No esgotamento das horas C F Descobriremos que agora Dm Necessitamos F Achar uma saída Dm Pro ser humano F C Viver em harmonia F Harmonia C Harmonia F Harmonia

Verse 3:

C Um homem bomba F Um ato terrorista C Desunião F Sentimentos de ojeriza Dm Nos perguntamos A# G Onde é que iremos chegar C Uma Sodoma F Uma guerra de torcida C Uma agressão F Lances de Selvageria Dm Estamos todos F Num beco sem saída Dm Nos perguntamos
F Quanto é que vale a vida
Tab - Refrão 

   C            F 
E|-3-1-0-3-1-0----1-| 
B|--------------1-1-| 
G|------------------| 
D|------------------| 
A|------------------| 
E|------------------|
   C            F 
E|-3-1-0-3-1-0----1-| 
B|--------------1-1-| 
G|------------------| 
D|------------------| 
A|------------------| 
E|------------------|
   C            F 
E|-3-1-0-3-1-0----1-| 
B|--------------1-1-| 
G|------------------| 
D|------------------| 
A|------------------| 
E|------------------|
   C         F 
E|-3-1-0-3-5--------| 
B|-----------6------| 
G|-------------5----| 
D|------------------| 
A|------------------| 
E|------------------|
Tab - Solo 

Parte 1 De 6 
    Dm    F          C           F 
E|-----------------------------------------| 
B|-------------5h6-5---------5h6-5---------| 
G|-5-5h7-7b9-5-5-----5-5h7-5-5-----5-5h7-5-| 
D|-----------------------------------------| 
A|-----------------------------------------| 
E|-----------------------------------------|
Parte 2 De 6 
            C           F 
E|-----------------------------| 
B|-5h6-5---------5h6-5---------| 
G|-5-----5-5h7-5-5-----5-5h7-5-| 
D|-----------------------------| 
A|-----------------------------| 
E|-----------------------------|
Parte 3 De 6 
    C                                 F 
E|----------------------------------------------8-| 
B|------8----8----8----8----8----8----8-10p8------| 
G|-10b12--b12--b12--b12--b12--b12--b12-------10---| 
D|------------------------------------------------| 
A|------------------------------------------------| 
E|------------------------------------------------|
Parte 4 De 6 
    C                                 F 
E|-----------------------------------------------| 
B|------8----8----8----8----8----8----8-10p8-----| 
G|-10b12--b12--b12--b12--b12--b12--b12-------10--| 
D|-----------------------------------------------| 
A|-----------------------------------------------| 
E|-----------------------------------------------|
Parte 5 De 6 
    Dm     F          C                               
E|----------------------------| 
B|-------------5h6-5----------| 
G|-5-5h7-7b9-5-5-----5-5h7-5--| 
D|----------------------------| 
A|----------------------------| 
E|----------------------------|
Parte 6 De 6 
            F                              
E|-----------------------------| 
B|-5h6-5---------5h6-5---------| 
G|-5-----5-5h7-5-5-----5-5h7-5-| 
D|-----------------------------| 
A|-----------------------------| 
E|-----------------------------|

Verse 4:

C De vez em quando F Alguém nos desafia C F Justificaram melhoras Dm Por meio de estatísticas e acreditamos A# G Que o mundo pode mudar... Uoo o C Mas este ano F Queremos melhorias C F Nos enganamos de novo Dm Tenho nojo da política Estamos todos F Num beco sem saída Dm Nos perguntamos
F Quanto é que vale a vida
Tab - Refrão 

   C            F 
E|-3-1-0-3-1-0----1-| 
B|--------------1-1-| 
G|------------------| 
D|------------------| 
A|------------------| 
E|------------------|
   C            F 
E|-3-1-0-3-1-0----1-| 
B|--------------1-1-| 
G|------------------| 
D|------------------| 
A|------------------| 
E|------------------|
   C            F 
E|-3-1-0-3-1-0----1-| 
B|--------------1-1-| 
G|------------------| 
D|------------------| 
A|------------------| 
E|------------------|
   C         F 
E|-3-1-0-3-5---------| 
B|-----------6-------| 
G|-------------5-5h7-| 
D|-------------------| 
A|-------------------| 
E|-------------------|
Final Dm F C
share this page

See Also: