E-Chords
CAOSCRACIA

Tempestade Em Copo D'água(Ukulele chords)

CAOSCRACIA

Key: E
Intro E  C#m  F#m  B7 
      E  C#m  F#m  B4(7)  B7   
      E  C#m  F#m  B4(7)  B7     

   E                        C#m                F#m     
E|----------------------------------------------------| 
B|-------------12-------------------------------------| 
G|-11b13-11b13---11b13-11-9----------9----------------| 
D|--------------------------11-09-11---11-9-----------| 
A|------------------------------------------11-9------| 
E|----------------------------------------------------|
   B7   
E|-5-----5-----5---5-----5-----5----------------------| 
B|---6-4---6-4-------6-4---6-4------------------------| 
G|----------------------------------------------------| 
D|----------------------------------------------------| 
A|----------------------------------------------------| 
E|----------------------------------------------------|
   E        C#m    F#m     B4(7) B7   
E|----------------------------------------------------| 
B|-4s5-5h7-5-------5s7-----4s5--4---------------------| 
G|-----------6---------6-6----------------------------| 
D|----------------------------------------------------| 
A|----------------------------------------------------| 
E|----------------------------------------------------|
    E       C#m          F#m      B4(7) B7     
E|----------------5-4---------------------------------| 
B|-4s5-5h7-5----------7-5-7-------4s5-4---------------| 
G|-----------6----------------6-6---------------------| 
D|----------------------------------------------------| 
A|----------------------------------------------------| 
E|----------------------------------------------------|
E C#m Vou pro meu trabalho, tenho que pegar a condução F#m B7 Pois eu não tenho carro como o resto da população E C#m Sempre atrasado, corro pra alcançar a lotação F#m B7 Ônibus Lotado, Muito tumulto na estação E C#m E nesse itinerário, no meio do túnel o trem parou F#m B7 Vejo que sobrou até pra mãe do condutor E C#m Foi que alguém aqui na minha frente começou a reclamar F#m B7 Dizendo que é sempre só aqui que acontece desgraça E C#m Faço que disfarço, pego e me apego ao meu jornal F#m B7 Que fala um colapso, retrato de uma crise mundial E C#m Atos terroristas, o atentado está no ar F#m B7 E corre no diário o risco de uma guerra nuclear E C#m Povos em conflito no berço da civilização F#m B7 Ventos maremotos terremotos tsunamis no Japão E C#m Enquanto alguém aqui na minha frente continua a reclamar F#m B7 E C#7 Dizendo que é sempre só aqui que acontece desgraça Solo Guitarra
   F#            D#m             G#m           C#7    
E|---------6-7-6-7------------------------------------| 
B|-6s7-7-9---------7-------7---7-9-----7-9-7----------| 
G|---------------------6-8---8-------8-------8-6------| 
D|----------------------------------------------------| 
A|----------------------------------------------------| 
E|----------------------------------------------------|
                    F#            D#m        G#m     
E|--9-7-6---6--------------6-7-6-7--------------------| 
B|--------9---9-7-9-7--7-9---------7-----7---7-9------| 
G|-----------------------------------6-8---8----------| 
D|----------------------------------------------------| 
A|----------------------------------------------------| 
E|----------------------------------------------------|
                     C#7    
E|---9h11-11-11-11-11-9-------------------------------| 
B|---9-----9--9-11--9-9-------------------------------| 
G|----------------------------------------------------| 
D|----------------------------------------------------| 
A|----------------------------------------------------| 
E|----------------------------------------------------|
F# D#m Faço que disfarço, pego e me apego ao meu jornal G#m C#7 Que fala um colapso, retrato de uma crise mundial F# D#m Atos terroristas, o atentado está no ar G#m C#7 E corre no diário o risco de uma guerra nuclear F# D#m Povos em conflito no berço da civilização G#m C#7 Ventos maremotos terremotos tsunamis no Japão F# D#m Enquanto alguém aqui na minha frente continua a reclamar G#m C#7 F# D#m Dizendo que é sempre só aqui que acontece desgraça G#m C#7 F# D#m Dizendo que é sempre só aqui que acontece desgraça G#m C#7 F# Dizendo que é sempre só aqui que acontece desgraça D#m Aqui no Brasil G#m C#7 F# F#7 E vive provocando tempestade em copo d'água

roll up this ad to continue

share this page

See Also: