Aeropajitas

Borracho(Ukulele chords)

Aeropajitas

Key: C

roll up this ad to continue

	        
INTRO 

|---------------------| 
|---------------------| 
|-5-------------------|----> SE REPITE 
|-5----5-5----7-------|---->  3 VECES 
|-3----5-5----5-------| 
|------3-3----5-------| 


|---------------------| 
|---------------------| 
|-5-------------------| 
|-5----5...-----7-----| 
|-3----5...-----5-----| 
|------3...-----5-----| 

|------------------| 
|------------------| 
|-55---------------| ----> SE REPITE 
|-55--55--77--77---| ---->  2 VECES 
|-33--55--77--77---| 
|-----33--55--55---| 
VERSO 1 C5 G5 A5 A5 Siempre camino hacia el mismo bar C5 G5 A5 A5 buskando mi licor C5 G5 A5 A5 haciendo linea para pasar V5 G5 A5 A5 el amargo sabor
C5 D5 E5* Cuando estoy borracho C5 D5 G5 me siento mejor C5 D5 E5* booooo...ooorracho C5 D5 G5 me siento mejor
VERSO 2 C5 G5 A5 A5 Despues de un trago C5 G5 A5 A5 de dos o tres C5 G5 A5 A5 se van poniendo las kosas mejor C5 G5 A5 A5 y tu te acerkas junto a mi CORO SOLO C5 D5 E5* booooo...ooorracho C5 D5 G5 me siento mejor C5 D5 E5* booooo...ooorracho C5 D5 G5 me siento mejor C5 D5 E5* booooo...ooorracho C5 D5 G5 me siento mejor C5 D5 E5* booooo...ooorracho C5 D5 G5 me siento mejor
|---------------------| 
|---------------------| 
|-5-------------------| 
|-5----5...-----7-----| 
|-3----5...-----5-----| 
|------3...-----5-----| 

ya ps nada mas q la nota 
E5* es asi|-----|  esta kancion va 
          |-----|  pa todos los borrachos 
          |--9--|  dle epru ps 
          |--9--| 
          |--7--| 
          |-----| 

See Also: