E-Chords
Windhand

Woodbine(Tabs)

Windhand

roll up this ad to continue

Key: C
Verse Riff 
d--------------------|  |---------------------------| 
A--------------------|  |---------------------------| 
F--------------------|  |---------------------------| 
C--------------------|X3|---------------------------| 
G-5--5--5-4-1-1--1-1-|  |-/8--8-8h10--10-10-10-10---| 
C-5--5--5-4-1-1--1-1-|  |-/8--8-8h10--10-10-10-10---| 

Chorus Riff 
d--------------------------| 
A--------------------------| 
F--------------------------| 
C--------------------------| 
G-5--5-10--10-5-8-8-8-3--3-| 
C-5--5-10--10-5-8-8-8-3--3-| 

Ending Riff 
d----------------------------------------| 
A----------------------------------------| 
F----------------------------------------| 
C----------------------------------------| 
G-5---5---1-0-1--1-0-1-0--4-3-4--4-3-4-0-| 
C-5---5---1-0-1--1-0-1-0--4-3-4--4-3-4-0-| 
share this page

See Also: