E-Chords
Weird Dreams

Vague Hotel(Tabs)

Weird Dreams

roll up this ad to continue

Key: D

Intro: (play three times) 

|---------------------------------------------------------------------| 
|---------------------------------------------------------------------| 
|----------------------------------4----------------------------------| 
|-----------4-----------2--3----5-----2--2--2--2----------------------| 
|----3--5------2-----5------------------------------------------------| 
|---------------------------------------------------------------------| 

(play once) 

|-----------------------------------------------------------| 
|-----------------------------------------------------------| 
|-----------------------------------------------------------| 
|-----------4-----------2--3-3-3-3-3------------------------| 
|----3--5------2-----5--------------------------------------| 
|-----------------------------------------------------------| 


Pre Verse/ Verse: (x6) 


|-------------------------------------------| 
|-------------------------------------------| 
|-------------------------------------------| 
l--3--2--0---3-3-3-3------------------------|  (x3) 
|-------------------------------------------| 
|-------------------------------------------| 

|-------------------------------------------| 
|-------------------------------------------| 
|-------------------------------------------| 
l--3--2--0---3-0----------------------------|  (x1) 
|-------------------------------------------| 
|-------------------------------------------| 

Bridge:  (x2) 

|-----------------------------------------| 
|-----------------------------------------| 
|--------------------5--4--2--------------| 
|-------2-0-------------------------------| 
|-2-0-------------------------------------| 
|-----------------------------------------| 


Verse: (x4) 


Bridge: (x2) 


Chorus: 

D       Dsus2   A 
A vague hotel 

D       Dsus2   A 
A vague hotel 


(slide x2) 
|---------------------------------------| 
|---------------------------------------| 
|---2--4--------------------------------| 
|-----------------4--2------------------| 
|---------------------------------------| 
|---------------------------------------| 

D       Dsus2   A 
A vague hotel 

D       Dsus2   A 
A vague hotel 


Repeat Intro: 


Pre Verse/ Verse: 

|-------------------------------------------| 
|-------------------------------------------| 
|-------------------------------------------| 
l--3--2--0---3-3-3-3------------------------|  (x2) 
|-------------------------------------------| 
|-------------------------------------------| 


Solo/Bridge: (x2) 

|-----------------------------------------| 
|-----------------------------------------| 
|--------------------5--4--2--------------| 
|-------2-0-------------------------------| 
|-2-0-------------------------------------| 
|-----------------------------------------| 


Chorus: (x4) (after two laps, the lyrics become 'Ooo Ahh's') 

D       Dsus2   A 
A vague hotel 

D       Dsus2   A 
A vague hotel 


(slide x2) 
|---------------------------------------| 
|---------------------------------------| 
|---2--4--------------------------------| 
|-----------------4--2------------------| 
|---------------------------------------| 
|---------------------------------------| 

(last slide) 
|---------------------------------------| 
|---------------------------------------| 
|---2--4--------------------------------| 
|---------------------------------------| 
|---------------------------------------| 
|---------------------------------------| 
share this page

See Also: