E-Chords
Venus

Who The Fuck Gave You This Invitation(Tabs)

Venus

roll up this ad to continue

Key: Am


Intro (0:00) 

e-------------------|-------------------| 
b-------------------|-------------------| 
g--5-------5--------|--4-------4--------| 
d------7-------7----|------5-------5----| x2 
a----0---0---0---0--|----0---0---0---0--| 
e-------------------|-------------------| 



Verse (0:08) 

                                         _______ 
e-------------------|-------------------|       | 
b-------------------|-------------------|       | 
g--5-------5--------|--4-------4--------|       | 
d------7-------7----|------5-------5----| x2    | 
a----0---0---0---0--|----0---0---0---0--|       | 
e-------------------|-------------------|       | 
                                                | 
e-------------------|-------------------|       | 
b-------------------|-------------------|       | 
g--5-------5--------|--5-------5--------|       | 
d------7-------7----|------7-------7----|       | x2 
a-------------------|-------------------|       | 
e----8---8---8---8--|----7---7---7---7--|       | 
                                                | 
e-------------------|-------------------|       | 
b-------------------|-------------------|       | 
g--5-------5--------|--4-------4--------|       | 
d------7-------7----|------6-------6----|       | 
a-------------------|-------------------|       | 
e----8---8---8---8--|----7---7---7---7--|_______| 



Bridge (0:39) 

   Am                  G                  
e-------------------|-------------------| 
b-------------------|-------------------| 
g--5-------5--------|--4-------4--------| 
d------7-------7----|------5-------5----| x2 
a----0---0---0---0--|----0---0---0---0--|   
e-------------------|-------------------|  
                                            
   F                       Em 
e-----------------------|----------------------------| 
b-----------------------|----------------------------| 
g--10--------10---------|--9------9--------9---------| 
d-------10--------10----|------10-----10-------10----| 
a-----8----8----8----8--|----7------7----7---7----7--| 
e-----------------------|----------------------------| 

   F                       Em 
e-----------------------|-------------------| 
b-----------------------|-------------------| 
g--10--------10---------|--7-------7--------| 
d-------10--------10----|------9-------9----| 
a-----8----8----8----8--|----5---5---5---5--| 
e-----------------------|-------------------| 

    

Verse (0:55) 

e----------------------------|-------------------| 
b----------------------------|-------------------| 
g--9------9--------9---------|--7-------7--------| 
d------10-----10-------10----|------9-------9----| x2 
a----7------7----7---7----7--|----5---5---5---5--| 
e----------------------------|-------------------| 

e-----------------------|----------------------------| 
b-----------------------|----------------------------| 
g--10--------10---------|--9------9--------9---------| 
d-------10--------10----|------10-----10-------10----| 
a-----8----8----8----8--|----7------7----7---7----7--| 
e-----------------------|----------------------------| 

e-----------------------|-------------------| 
b-----------------------|-------------------| 
g--10--------10---------|--7-------7--------| 
d-------10--------10----|------9-------9----| 
a-----8----8----8----8--|----5---5---5---5--| 
e-----------------------|-------------------| 

e---------------------------|------------------------| 
b---------------------------|------------------------| 
g--14----------14-----------|--12---------12---------| 
d--------14----------14-----|-------14---------14----| x2 
a-----12----12----12----12--|----10----10---10---10--| 
e---------------------------|------------------------| 

e--------------------------|---------------------------| 
b--------------------------|---------------------------| 
g--14---------14-----------|--14----------14-----------| 
d-------15----------15-----|--------14----------14-----| 
a----12----12----12----12--|-----12----12----12----12--| 
e--------------------------|---------------------------| 

e--------------------------|---------------------------| 
b--------------------------|---------------------------| 
g--14---------14-----------|--13----------13-----------| 
d-------15----------15-----|--------14----------14-----| 
a----12----12----12----12--|-----11----11----11----11--| 
e--------------------------|---------------------------| 



Bridge (1:27) 

e-----------|-----------| 
b-----------|-----------| 
g--5---5-5--|--4---4-4--| 
d--7---7-7--|--5---5-5--| x2 
a--7---7-7--|--5---5-5--| 
e--5---5-5--|--3---3-3--| 

e-------------|-----------| 
b--10--10-10--|--9---9-9--| 
g--10--10-10--|--9---9-9--| 
d--10--10-10--|--9---9-9--| x2 
a---8---8--8--|--7---7-7--| 
e-------------|-----------| 



Verse (1:43) 
                                         ________________ 
e-------------------|-------------------|                | 
b-------------------|-------------------|                | 
g--5-5-5-5-5-5-5-5--|--4-4-4-4-8-8-8-8--|                | 
d--7-7-7-7-7-7-7-7--|--5-5-5-5-9-9-9-9--| x2             | 
a--7-7-7-7-7-7-7-7--|--5-5-5-5-9-9-9-9--|                | 
e--5-5-5-5-5-5-5-5--|--3-3-3-3-7-7-7-7--|                | 
                                                         |  x2 
e---------------------------|-------------------|        | 
b--10-10-10-10-10-10-10-10--|--9-9-9-9-9-9-9-9--|        | 
g--10-10-10-10-10-10-10-10--|--9-9-9-9-9-9-9-9--| x2     | 
d--10-10-10-10-10-10-10-10--|--9-9-9-9-9-9-9-9--|        | 
a---8--8--8--8--8--8--8--8--|--7-7-7-7-7-7-7-7--|        | 
e---------------------------|-------------------|________| 

e-------------------|-------------------| 
b-------------------|-------------------| 
g--5-5-5-5-5-5-5-5--|--4-4-4-4-8-8-8-8--| 
d--7-7-7-7-7-7-7-7--|--5-5-5-5-9-9-9-9--| x2 
a--7-7-7-7-7-7-7-7--|--5-5-5-5-9-9-9-9--| 
e--5-5-5-5-5-5-5-5--|--3-3-3-3-7-7-7-7--| 


e---------------------------|-------------------| 
b--10-10-10-10-10-10-10-10--|--9-9-9-9-9-9-9-9--| 
g--10-10-10-10-10-10-10-10--|--9-9-9-9-9-9-9-9--| 
d--10-10-10-10-10-10-10-10--|--9-9-9-9-9-9-9-9--| x2 
a---8--8--8--8--8--8--8--8--|--7-7-7-7-7-7-7-7--| 
e---------------------------|-------------------| 



Bridge (2:14) 
                                                         _____ 
e---------------------------|---------------------------|     | 
b---------------------------|---------------------------|     | 
g--14-14-14-14-14-14-14-14--|--12-12-12-12-16-16-16-16--|     | 
d--14-14-14-14-14-14-14-14--|--12-12-12-12-16-16-16-16--| x2  | 
a--12-12-12-12-12-12-12-12--|--10-10-10-10-14-14-14-14--|     | 
e---------------------------|---------------------------|     | 
                                                              | 
e---------------------------|---------------------------|     | 
b---------------------------|---------------------------|     | 
g--14-14-14-14-14-14-14-14--|--14-14-14-14-14-14-14-14--|     | x2 
d--14-14-14-14-14-14-14-14--|--14-14-14-14-14-14-14-14--|     | 
a--12-12-12-12-12-12-12-12--|--12-12-12-12-12-12-12-12--|     | 
e---------------------------|---------------------------|     | 
                                                              | 
e---------------------------|---------------------------|     | 
b---------------------------|---------------------------|     | 
g--14-14-14-14-14-14-14-14--|--13-13-13-13-13-13-13-13--|     | 
d--14-14-14-14-14-14-14-14--|--13-13-13-13-13-13-13-13--|     | 
a--12-12-12-12-12-12-12-12--|--11-11-11-11-11-11-11-11--|     | 
e---------------------------|---------------------------|_____| 



Outro (2:45) 

e-------------------|-------------------| 
b-------------------|-------------------| 
g--5-------5--------|--4-------4--------| 
d------7-------7----|------5-------5----| 
a----0---0---0---0--|----0---0---0---0--| 
e-------------------|-------------------| 
share this page

See Also: