E-Chords
Timo Tolkki

Greensleeves(Tabs)

Timo Tolkki

guitar 1 
acoustic 
E | ----------------------------------------------------------- 
B | ----------------------------------------------------------- 
G | -12-14-16-17-16-14----------------------------------------- 
D | -------------------16---14-16-17-14-14-13-14-16-13--------- 
A | ---------------------17----------------------------14------ 
E | ----------------------------------------------------------- 

E | ----------------------------------------------------------- 
B | ----------------------------------------------------------- 
G | ----12-14-16-17-16-14-------------------------------------- 
D | -14-------------------16----14-16-17-16-14-13----13-14--14- 
A | -------------------------17-------------------16----------- 
E | ----------------------------------------------------------- 

guitar 1 
electric 
E | ----------------------------------------------------------- 
B | ----------------------------------------------------------- 
G | ----12-14-16-17-16-14-------------------------------------- 
D | -14-------------------16----14-16-17-14-14-13-14-16-13----- 
A | -------------------------17----------------------------14-- 
E | ----------------------------------------------------------- 

E | ----------------------------------------------------------- 
B | ----------------------------------------------------------- 
G | ----12-14-16-17-16-14-------------------------------------- 
D | -14-------------------16----14-16-17-16-14-13----13-14-14-- 
A | -------------------------17-------------------16----------- 
E | ----------------------------------------------------------- 

guitar 2 
electric 
E | ---------------------------------------------------------------- 
B | ------------------------12-13-12-10----------------------------- 
G | -(b9)(b9)-12--7-----(b9)---8-------------12-11--(b9)-12--7-----(b9)-8--(b9)- 
D | -------------(b9)---10--------------------------------(b9)---------- 
A | ---------------------------------------------------------------- 
E | ---------------------------------------------------------------- 

guitar 3 
acoustic 
E | ---------------------------------------------------------------- 
B | ---------------------------------------------------------------- 
G | ---(b9)-------7---4---(b9)--5---4----(b9)-------7---4---5---4---2----- 
D | --(b9)---5---7---4---(b9)--5---4----(b9)---5---7---4---5---4---2------ 
A | -7----5---5---2---7---3---2----7----5---5---2---3---2---0------- 
E | -----3-----------------------------3---------------------------- 

guitar 1 
electric 
E | ---------------------------------------------------------------- 
B | ---------------------------------------------------------------- 
G | -1(b9)-1(b9)17-16-14------------------------------16-17-16-14------- 
D | -----------------16---14-16-17-14-14-13-14-16------------17-16-- 
A | -------------------17------------------------------------------- 
E | ---------------------------------------------------------------- 

E | ---------------------------------------------------------------- 
B | ---------------------------------------------------------------- 
G | -1(b9)1(b9)18-16-14------------------------------------------------- 
D | ----------------16----14-16-17-16-14-13----13-14---14----------- 
A | ------------------17--------------------16---------------------- 
E | ---------------------------------------------------------------- 

guitar 2 
electric 
E | --------------------------------------------------------------------- 
B | ------------------------12-13-12-10---------------------------------- 
G | -12-12--7-----(b9)-----8-------------12-11---12--12--7-----(b9)-8--(b9)-(b9)- 
D | -----------(b9)----10-----------------------------------(b9)------------- 
A | --------------------------------------------------------------------- 
E | --------------------------------------------------------------------- 

guitar 3 
acoustic 
E | --------------------------------------------------------------------- 
B | --------------------------------------------------------------------- 
G | -------------7---4---(b9)--5---4---4-------------7---4---5---4---2----- 
D | ---5---5----7---4---(b9)--5---4---4----5---5----7---4---5---4---2------ 
A | --5---5---5---2---7---3---2---2-----5---5---5---2---3---2---0-------- 
E | -3---3-----------------------------3---3----------------------------- 

guitar 1 
electric 
E | --------------------------------------------------------------------- 
B | --------------------------------------------------------------------- 
G | -12-14-16-17-16-14----------------------------16-17-16-14------------ 
D | ------------------16---14-16-17-14-14-13-14-16-----------17-16------- 
A | --------------------17----------------------------------------------- 
E | --------------------------------------------------------------------- 

E | --------------------------------------------------------------------- 
B | --------------------------------------------------------------------- 
G | -12-14-16-17-16-14--------------------------------------------------- 
D | ------------------16---14-16-17-16-14-13----13-14-------------------- 
A | --------------------17-------------------16-------------------------- 
E | --------------------------------------------------------------------- 

guitar 2 
electric 
E | --------------------------------------------------------------------- 
B | ------------------------12-13-12-10---------------------------------- 
G | -(b9)-12--7-----(b9)-----8-------------12-11---12--16--14------------(b9)-- 
D | -----------(b9)----10------------------------------------(b9)-10--(b9)----- 
A | --------------------------------------------------------------------- 
E | --------------- 

roll up this ad to continue

share this page

See Also: