E-Chords
The Vintage Caravan

Cocaine Sally(Tabs)

The Vintage Caravan

roll up this ad to continue

Intro 

e|-----------------------------------| 
B|-----------------------------------| 
G|-----------------------------------| 
D|-----------------------------------| 
A|---5-6-7---5---5-------------------| 
E|-7-----------7-----7-6-5---0-4-5-6-| 


e|---------------------||          |------------------------------------| 
B|---------------------||          |------------------------------------| 
G|---------------------|| 3x, then |------------------------------------| 
D|----------7-7---5b---||          |------------------------------------| 
A|---7-7p5------7----7-||          |-7p5p7---5---5----------------------| 
E|-0------7------------||          |-----------7-----7-6-5--0--4--5--6--| 


verse 2x 

e|---------------------|---------------------| 
B|---------------------|---------------------| 
G|---------------------|---------------------| 4x 
D|---------------------|----------7-7---5b---| 
A|---------------------|---7-7p5------7----7-| 
E|-0-------------------|-0------7------------| 


e|---------------------||          |------------------------------------| 
B|---------------------||          |------------------------------------| 
G|---------------------|| 2x, then |------------------------------------| 
D|----------7-7---5b---||          |------------------------------------| 
A|---7-7p5------7----7-||          |-7p5p7---5---5----------------------| 
E|-0------7------------||          |-----------7-----7-6-5--0--4--5--6--| 


Chorus 

e|-------------------|---------------------| 
B|-------------------|---------------------| 
G|-5--------4--------|---------------------| 3x 
D|-5--------4--------|----------7-7---5b---| 
A|-3--------2--------|---7-7p5------7----7-| 
E|-------------------|-0------7------------| 


e|-------------------|---------------------| 
B|-------------------|---------------------| 
G|-5--------4--------|-7--------2----------| 
D|-5--------4--------|-7--------2----------| 
A|-3--------2--------|-5--------0----------| 
E|-------------------|---------------------| 


Interlude 

e|-----------------------||          |-------------------------------| 
B|-----------------------||          |-------------------------------| 
G|-----------------------|| 2x, then |-------------------------------| 
D|----------5/7-7---7-9~-||          |-9p7h9~-7p5h7~-5p2h5-----------| 
A|---7-7p5--------7------||          |---------------------s7--5-6-7-| 
E|-0------7--------------||          |-------------------------------| 


Verse 

e|---------------------|---------------------|| 
B|---------------------|---------------------|| 
G|---------------------|---------------------|| 3x 
D|---------------------|----------7-7---5b---|| 
A|---------------------|---7-7p5------7----7-|| 
E|-0-------------------|-0------7------------|| 


e|---------------------|| 
B|---------------------|| 
G|---------------------|| 6x, then 2 bars pause + drum fill 
D|-----------------5-5-|| 
A|-----------------5-5-|| 
E|-0-----------(0)-3-3-|| 


Chorus 

e|-------------------|---------------------| 
B|-------------------|---------------------| 
G|-5--------4--------|---------------------| 3x 
D|-5--------4--------|----------7-7---5b---| 
A|-3--------2----(2b)|---7-7p5------7----7-| 
E|-------------------|-0------7------------| 


e|-------------------|---------------------| 
B|-------------------|---------------------| 
G|-5--------4--------|-7--------2----------| 
D|-5--------4--------|-7--------2----------| 
A|-3--------2--------|-5--------0----------| 
E|-------------------|---------------------| 


Interlude 

e|--------------------|| 
B|--------------------||          
G|--------------------|| 2x, then Solo 
D|----------7-7---5b--|| 
A|---7-7p5------7---7-|| 
E|-0------7-----------|| 


Solo 
todo 

2nd guitar plays this during solo 

e|---------------------||          |------------------------------------| 
B|---------------------||          |------------------------------------| 
G|---------------------|| 3x, then |------------------------------------| 
D|----------7-7---5b---||          |------------------------------------| 
A|---7-7p5------7----7-||          |-7p5p7---5---5----------------------| 
E|-0------7------------||          |-----------7-----7-6-5--0--4--5--6--| 


e|---------------------||          |------------------------------------| 
B|---------------------||          |------------------------------------| 
G|---------------------|| 3x, then |------------------------------------| 
D|----------7-7---5b---||          |------------------------------------| 
A|---7-7p5------7----7-||          |-7p5p7---5---5----------------------| 
E|-0------7------------||          |-----------7-----7-6-5--0--4--5--6--| 

e|---| 
B|---| 
G|---| end on this 
D|---| 
A|---| 
E|-0-| 

************************************ 

| (n) Ghost note 
| h   Hammer-on 
| p   Pull-off 
| b   Bend 
| /   Slide up 
| ~   Vibrato 

************************************ 
share this page

See Also: