E-Chords
The Snow

Joy Of Life(Tabs)

The Snow

roll up this ad to continue

Key: B
Intro: 
e|-----------------| 
B|-----------------| 
G|---------7-------| 
D|---5---5---5---5-| 
A|-7---7-------7---| 
E|-----------------| x8 

VERSE A: 
  Guitar 1 
e|-------------------------------------------------| 
B|-------------------------------------------------| 
G|-------------------------------------------------| 
D|-------------------------------------------------| 
A|---7----7---7----7-------12-------12----10----10-| 
E|-5---55---5---55---10-10----10-10----88----88----| x4 
  Guitar 2 
e|-----------------| 
B|-----------------| 
G|---------7-------| 
D|---5---5---5---5-| 
A|-7---7-------7---| 
E|-----------------| x16 
  Guitar 3 
e|--------------------------|--------------------------|      |------| 
B|--------------------------|--------------------------|      |------| 
G|-16-16-16-16--16-16-16-16-|-16-16-16-16--16-16-16-16-|      |-16---| 
D|--------------------------|--------------------------|      |------| 
A|--------------------------|--------------------------|      |------| 
E|--------------------------|--------------------------| x8 |------| 

VERSE B: repeat VERSE A without Gtr 3 

GUITAR Solo: 
  Guitar 1 
e|-----------------------------| 
B|-----------------------------| 
G|-9---9--9-11--7--9-----------| 
D|--------------------9------7-| 
A|-----------------------------| 
E|-----------------------------| x4 
  Guitar 2 
e|-----------------------------| 
B|-----------------------------| 
G|-----------------------------| 
D|-----------------------------| 
A|-7---7--7-9--5--7------------| 
E|-------------------7------5--| x4 
  Guitar 3 
e|-------------------------------------------------| 
B|-------------------------------------------------| 
G|-------------------------------------------------| 
D|-------------------------------------------------| 
A|---7----7---7----7-------12-------12----10----10-| 
E|-5---55---5---55---10-10----10-10----88----88----| x4 

Repeat VERSE B 

Bridge: 
  Guitar 1                1.          2. 
e|-----------------------|-----------|-----------| 
B|-----------------------|-----------|-----------| 
G|-12-12-12-11-11-11-9-9-|-7777-7777-|-7777-9999-| 
D|-----------------------|-----------|-----------| 
A|-----------------------|-----------|-----------| 
E|-----------------------|-----------|-----------| 

e|---------------------|----------------| 
B|---------------------|----------------| 
G|-----------7777-99-7-|--777-7777-7777-| 
D|-9999-(x3)--------9--|----------------| 
A|---------------------|----------------| 
E|---------------------|----------------| 

  Guitar 2             1.          2. 
e|--------------------|-----------|-----------| 
B|--------------------|-----------|-----------| 
G|--------------------|-----------|-----------| 
D|--------------------|-----------|-----------| 
A|-10-10-10-9-9-9-7-7-|-5555-5555-|-5555-7777-| 
E|--------------------|-----------|-----------| 

e|---------------------|----------------| 
B|---------------------|----------------| 
G|---------------------|----------------| 
D|---------------------|----------------| 
A|-----------5555-77-5-|--555-5555-5555-| 
E|-7777-(x3)--------7--|----------------| 

Repeat VERSE A (Gtr 1 = x2, Gtr 2 = x8, Gtr 3 = x4) 

OUTRO A: x3 
  Guitar 1 
e|----------------------------------------| 
B|----------------------------------------| 
G|-16-16-16-16-(x3)-16-14-14-14--12-12-12-| 
D|----------------------------------------| 
A|----------------------------------------| 
E|----------------------------------------| 

e|----------------------------------------| 
B|----------------------------------------| 
G|-14-14-14-------------------12-12-12-12-| 
D|----------14-14-14-14-14-14-------------| 
A|----------------------------------------| 
E|----------------------------------------| 
  Guitar 2 
e|-------------------------------------------| 
B|-------------------------------------------| 
G|-------------------------------------------| 
D|-9999-9999-9999-9777-555-777--------5555---| 
A|-----------------------------777777--------| 
E|-------------------------------------------| 
  Guitar 3 
e|-----------------| 
B|-----------------| 
G|---------7-------| 
D|---5---5---5---5-| 
A|-7---7-------7---| 
E|-----------------| x4 

OUTRO B: 
  Guitar 1 
e|----------------------------------------| 
B|----------------------------------------| 
G|-16-16-16-16-(x3)-16-14-14-14--12-12-12-| 
D|----------------------------------------| 
A|----------------------------------------| 
E|----------------------------------------| 

e|----------------------------------------| 
B|----------------------------------------| 
G|-14-14-14-14-14-------------12-12-12-12-| 
D|----------------14-14-14-14-------------| 
A|----------------------------------------| 
E|----------------------------------------| 
  Guitar 2 
e|-------------------------------------------| 
B|-------------------------------------------| 
G|-------------------------------------------| 
D|-9999-9999-9999-9777-555-77777------5555---| 
A|-------------------------------7777--------| 
E|-------------------------------------------| 
  Guitar 3 
e|-----------------| 
B|-----------------| 
G|---------7-------| 
D|---5---5---5---5-| 
A|-7---7-------7---| 
E|-----------------| x4 

End. Please rate! :D 
share this page

See Also: