E-Chords
The Mary Janes

Friends(Tabs)

The Mary Janes

roll up this ad to continue

        


Verse 

E|--0--0-----------------------------------------------------| 
B|--0--0-----------------------------------------------------| 
G|--7--6-----------------------------------------------------| 
D|--9--7-----------------------------------------------------| 
A|--9--7-----------------------------------------------------| 
E|--7--5-----------------------------------------------------| 

Chorus 

E|--0--0--| 
B|--7--5--| 
G|--7--6--| 
D|--9--7--|switch between these two chords and the one's used in the 'verse' 
A|--9--7--| 
E|--7--5--| 

Bridge/Build Up From Chorus Into Chorus 

E|--0--0--0---0----------------------------------------------| 
B|--0--0--0---0----------------------------------------------| 
G|--7--7--7---9----------------------------------------------| 
D|--9--9--9---9----------------------------------------------| 
A|--9--9--9---9----------------------------------------------| 
E|--7--9--10--12---------------------------------------------| 

Second guitar: 

E|-----------------------------------------------------------| 
B|-----------------------------------------------------------| 
G|--------7--6-------(6)-------------------------------------| 
D|-----9--------7-----7--------------------------------------| 
A|-----------------7-----------------------------------------| 
E|--7--------5-----------------------------------------------| 

Secound guitar (second time around): 

E|-----------------------------------------------------------| 
B|-----------------------------------------------------------| 
G|--------7--6--------6--------------------------------------| 
D|--------------7--------------------------------------------| 
A|-----9-----------7-----------------------------------------| 
E|--7--------5-----------------------------------------------|
        
share this page

See Also: