E-Chords
The Julies

Blue(Tabs)

The Julies

roll up this ad to continue

Christian/Gospel 
Blue  
The Julies 
(c) 1995 Mr. Agreeable Music BMI 
figured out by Israel Slick 
    
G |------------------4-4-4-4-----------------4-4-4-4-| 
D |--5-5-5-5-5-5-5-5---------2-2-2-2-2-2-2-2---------| 
A |--------------------------------------------------| 
E |--------------------------------------------------| 
 
G |--------------------------------------------------| 
D |--------------------------------------------------| 
A |--3-3-3-3-3-3-3-3-5--2------------------2h3-2h5---| 
E |-----------------------3-3-3-3-3-3-3-3------------| 
 
The 'She says and she says' part 
 
  
G |---------------4------------------| 
D |--5-5-5-5-5-5-----2-2-2-2-2-2-----| 
A |-------------------------------5--| 
E |----------------------------------| 
 
A |--3-3-3-3-3-3--2---------------2h3--2h5--| 
E |------------------3-3-3-3-3-3------------| 
 
share this page

See Also: