E-Chords
The Gathering

In Power We Entrust The Love Advocated(Tabs)

The Gathering

Key: Am
bom eu num consegui encontrar a letra da música,   
pra encaixar tudo no tempo certinho..é só acompanhar a música 
 
Intodução : 
 
e|------------------------| 
B|---12----10---9----4--9-| 
G|------------------------| 
D|------------------------| 
A|-0----0-----0---0---0---| 
E|------------------------| 
 
Verso : 
 Am Em G D 
 
 
Break: 
 
 
Acompanha com um C 
A|----3-3-3-3-3-3-3-3-3-3-3| 
G|----5-5-4-5-4-5-5-5-4-5-4|x8 
 
 
Verso : 
 Am Em G D 
 
Break: 
 
Acompanha com um C 
A|----3-3-3-3-3-3-3-3-3-3-3| 
G|----5-5-4-5-4-5-5-5-4-5-4|x8 
 
 
 
Último verso  :  Am Em A G D Am Em Am  
 
Final da Música: 
Acompanha com as notas do verso: Am Em G D 
Primeiro solo: 
e|-------------------------------------------------| 
B|-------------------------------------------------| 
G|---17-16-14-12-14-12-11-12-16-14-12-11-12-11-9~| 
D|-------------------------------------------------| 
A|-------------------------------------------------| 
E|-------------------------------------------------| 
 
e|-------------------------------------------------| 
B|-------------------------------------------------| 
G|-16-14-12-11-12-11-12-9-11-14-12-11-12-14-12-11~-| 
D|-------------------------------------------------| 
A|-------------------------------------------------| 
E|-------------------------------------------------| 
 
e|-------------------------------------------------| 
B|-------------------------------------------------| 
G|---17-16-14-12-14-12-11-12-16-14-12-11-12-11-9~| 
D|-------------------------------------------------| 
A|-------------------------------------------------| 
E|-------------------------------------------------| 
 
e|-------------------------------------------------| 
B|-------------------------------------------------| 
G|-16-14-12-11-12-11-12-9-11-14-12-11-12-14-12-11-12|   
D|-------------------------------------------------| 
A|-------------------------------------------------| 
E|-------------------------------------------------| 
 
e|-------------------------------------------------|        > | 
B|-------------------------------------------------|         | 
G|---12-11-12-11-12-11-14-12-11-12-12-11-12-11-14-12-11-12|  |> Várias vezes até o fim da  
D|-------------------------------------------------|         | music e termina com um G|---7~| 
A|-------------------------------------------------|         | 
E|-------------------------------------------------|         >|| 

roll up this ad to continue

share this page

See Also: