E-Chords
The Devil Wears Prada

Alien(Tabs)

The Devil Wears Prada

roll up this ad to continue

Key: Gs
0:11-0:22 

B|---------------------------------------------------------------------------| 
F#|--------------------------------------------------------------------------| 
D|---------------------------------------------------------------------------| 
A|-1-2--------------------------1-2------------------------------------------|  x2 
E|---------------------------------------------------------------------------| 
A|-----0--1---1---1---1---1---1-----0--1---1---1---1---1---1--1/3-0----------| 

0:23-0:33 

B|---------------------------------------------------------------------------| 
F#|--------------------------------------------------------------------------| 
D|---------------------------------------------------------------------------| 
A|---------------------------------------------------------------------------|  x2 
E|-0--0--0--0-----0---0---0---0--000000---0--0--0--0----0---0---0---0--------| 
A|-0--0--0--0-----0---0---0---0--000000---0--0--0--0----0---0---0---0-1/3-0--| 

0:34-0:55 

B|----------WEIRD------------------------------------------------------------| 
F#|------------------ALIEN---------------------------------------------------| 
D|----------------------------AND--------------------------------------------| 
A|-----------------------------------GUN-------------------------------------| 
E|------------------------------------------SHOT-----------------------------| 
A|--------------------------------------------------SOUNDS-------------------| 

0:56-0:59 

B|---------------------------------------------------------------------------| 
F#|--------------------------------------------------------------------------| 
D|---------------------------------------------------------------------------| 
A|---------------------------------------------------------------------------|  x2 
E|----------------------------------------------------3333-2222-5555---------| 
A|-7777777777777777-3333333333333333-2222222222222222----------------6666----| 

B|---------------------------------------------------------------------------| 
F#|--------------------------------------------------------------------------| 
D|---------------------------------------------------------------------------| 
A|---------------------------------------------------------------------------| 
E|---------------------------------------------------------------------------| 
A|-7777777777777777-3333333333333333-2222222222222222------------------------| 

1:00-1:11 

B|---------------------------------------------------------------------------| 
F#|--------------------------------------------------------------------------| 
D|---------------------------------------------------------------------------| 
A|---------------------------------------------------------------------------|  x2 
E|-7-6-0--7----7----7----7----(7)--------------------------------------------| 
A|-----0--7----7----7----7----(7)--7/9\6-------------------------------------| 

B|---------------------------------------------------------------------------| 
F#|--------------------------------------------------------------------------| 
D|---------------------------------------------------------------------------| 
A|---------------------------------------------------------------------------| 
E|-7-6-0--7----(7)--7--(7)--7--(7)--7--(7)------+7~--------------------------| 
A|-----0--7----(7)--7--(7)--7--(7)--7--(7)--7/9------------------------------| 


B|---------------------------------------------------------------------------| 
F#|--------------------------------------------------------------------------| 
D|---------------------------------------------------------------------------| 
A|---------------------------------------------------------------------------| 
E|-7-6-0--7----7----7----7----(7)--------------------------------------------| 
A|-----0--7----7----7----7----(7)--7/9\6-------------------------------------| 

1:12-1:23 

B|---------------------------------------------------------------------------| 
F#|--------------------------------------------------------------------------| 
D|---------------------------------------------------------------------------| 
A|---------------------------------------------------------------------------| 
E|-0-0-0-000-000-000-000-000-000------0-0-0-000-000-000-----000-000----------| 
A|-0-0-0-000-000-000-000-000-000------0-0-0-000-000-000-----000-000----------| 

1:24-1:34 

B|---------------------------------------------------------------------------| 
F#|--------------------------------------------------------------------------| 
D|---------------------------------------------------------------------------| 
A|---------------------------------------------------------------------------|  x2 
E|----------------------------------------------------3333-2222-5555---------| 
A|-7777777777777777-3333333333333333-2222222222222222----------------6666----| 

1:35-1:45 

B|---------------------------------------------------------------------------| 
F#|--------------------------------------------------------------------------| 
D|---------------------------------------------------------------------------| 
A|---------------------------------------------------------------------------| 
E|-7--7---7--7-3--3---3--3-2--2---2--2-10---9---12---10----------------------| 
A|-7--7---7--7-3--3---3--3-2--2---2--2-10---9---12---10----------------------| 

B|---------------------------------------------------------------------------| 
F#|--------------------------------------------------------------------------| 
D|---------------------------------------------------5-6p5-------------------| 
A|------------------------------------------------3/4------------------------| 
E|-7--7---7--7-3--3---3--3-2--2---2--2---2--2-2------------------------------| 
A|-7--7---7--7-3--3---3--3-2--2---2--2---2--2-2------------------------------| 

1:46-1:57 

B|---------------------------------------------------------------------------| 
F#|--------------------------------------------------------------------------| 
D|----------------5-6p5--------------------5-6p5-----------------------------| 
A|-------------3/4---------------------3/4-----------------------------------| 
E|-2b--2b--2b------------2b--2b----------------------------------------------| 
A|-2b--2b--2b------------2b--2b--/12p0---------------------------------------| 

B|---------------------------------------------------------------------------| 
F#|--------------------------------------------------------------------------| 
D|----------------5-6p5------------------------------------------------------| 
A|-------------3/4-----------------------------------------------------------| 
E|-2b--2b--2b------------2b--2b----------------------------------------------| 
A|-2b--2b--2b------------2b--2b--/12p0---12-0--------------------------------| 

1:58-2:20 

B|---------------------------------------------------------------------------| 
F#|--------------------------------------------------------------------------| 
D|---------------------------------------------------------------------------| 
A|---------------------------------------------------------------------------| 
E|-7------3------2------10--9--(0)--12--10-----------------------------------| 
A|-7------3------2------10--9--(0)--12--10-----------------------------------| 

B|---------------------------------------------------------------------------| 
F#|--------------------------------------------------------------------------| 
D|---------------------------------------------------------------------------| 
A|---------------------------------------------------------------------------|  x2 
E|-7--7---7--7-3--3---3--3-2--2---2--2-10---9---12---10----------------------| 
A|-7--7---7--7-3--3---3--3-2--2---2--2-10---9---12---10----------------------| 

B|---------------------------------------------------------------------------| 
F#|--------------------------------------------------------------------------| 
D|---------------------------------------------------5-6p5-------------------| 
A|------------------------------------------------3/4------------------------| 
E|-7--7---7--7-3--3---3--3-2--2---2--2---2--2-2------------------------------| 
A|-7--7---7--7-3--3---3--3-2--2---2--2---2--2-2------------------------------| 

2:21-2:33 

B|---------------------------------------------------------------------------| 
F#|--------------------------------------------------------------------------| 
D|----------------5-6p5--------------------5-6p5-----------------------------| 
A|-------------3/4---------------------3/4-----------------------------------| 
E|-2b--2b--2b------------2b--2b----------------------------------------------| 
A|-2b--2b--2b------------2b--2b--/12p0---------------------------------------| 

B|---------------------------------------------------------------------------| 
F#|--------------------------------------------------------------------------| 
D|----------------5-6p5------------------------------------------------------| 
A|-------------3/4-----------------------------------------------------------| 
E|-2b--2b--2b------------2b--2b-----------------0--0-------------------------| 
A|-2b--2b--2b------------2b--2b--/12p0---12-0---0--0-------------------------| 

************************************ 

| /   slide up 
| h   hammer-on 
| p   pull-off 
| ~   vibrato 
| +   harmonic 
| b   Bend 

************************************ 
share this page

See Also: