The All American Rejects

Change Your Mind Solo(Tabs)

The All American Rejects

roll up this ad to continue

	        I'm not positive about guitar 1 because it's 
pretty hard to hear in the song but it's a  
start. Guitar 2 is pretty accurate. 


GUITAR 1 

E --0---1-0-----1---3-1-----3---5-3-1-3-1-0 
B ------------------------1---1------------ 
G 2---2-----2-3---3-----3------------------ 
D ----------------------------------------- 
A ----------------------------------------- 
E ----------------------------------------- 

E -1-0-----3---5-3-----5---6-5-----6---8-10 
B -----1-3---3-----3-5---5----5-6---6------ 
G ----------------------------------------- 
D ----------------------------------------- 
A ----------------------------------------- 
E ----------------------------------------- 

E -12 
B --- 
G --- 
D --- 
A --- 
E --- 

GUITAR 2 

E ------------------------------------------ 
B ------------------------------------------ 
G ------------------0-------0---2-0---0----- 
D --2---3-2-----3-----3-------------3---3-2- 
A 0---0-----0-1---1-----1-3---3------------- 
E ------------------------------------------ 

E --------0---1-0-----1---3--1-----3---5-3-5 
B ------------------------------1---1------- 
G ------2---2-----2-3---3-----3------------- 
D 3-2--------------------------------------- 
A ----3------------------------------------- 
E ------------------------------------------ 

E -7-5-7-8~- 
B ---------- 
G ---------- 
D ---------- 
A ---------- 
E ---------- 

Comments? 
	        

See Also: