The Academy Is

Down And Out(Tabs)

The Academy Is

Key: D

roll up this ad to continue

	        Tuning: drop D 

   intro: guitar 1 
e|----------------------0----| 
B|----2-----2------------2---| 
G|---2-2---2-2--x3-----2-----| 
D|--------3------------------| 
A|--0-----------------0------| 
D|---------------------------| 

verse 1: guitar 1 
     out of the box...  so fearful of... 
e|-------------------------------------------| 
B|-----2-----2------------2----2----2----2---| 
G|----2-2---2-2--x6------2-2--2-2--2-2--2-2--| 
D|---------3---------------------------------| 
A|---0------------------0----0----0----0-----| 
D|-------------------------------------------| 

preChorus: guitar 1 
     i don't ever wanna...    my friend... 
e|----------------------------------------------0---| 
B|-----2----2----2----2---------2-----2----------2--| 
G|----2-2--2-2--2-2--2-2--x4---2-2---2-2--x3---2----| 
D|---0----0----0----2---------------3---------------| 
A|----------------------------0---------------0-----| 
D|--------------------------------------------------| 

verse 2: guitar 1 
      out of the house...   so fearful of... 
e|-----------------------------------------------| 
B|-----2-----2----------------2----2----2----2---| 
G|----2-2---2-2--------------2-2--2-2--2-2--2-2--| 
D|---------3-------x10---------------------------| 
A|---0----------------------0----0----0----0-----| 
D|-----------------------------------------------| 

preChorus: guitar 1 
       i don't ever wanna... 
e|------------------------------------------------------| 
B|-----2-----2----2-----2-----------2----2-----2-2-2-2--| 
G|----2-2---2-2--2-2---2-2---x3----2-2--2-2-------------| 
D|---0-----0----0-----2-----------0----0------2-0---0---| 
A|------------------------------------------------4-----| 
D|------------------------------------------------------| 

preChorus (cont.): guitar 1 
     why oh why...       an hour ago...  
e|-------------------------------------| 
B|-----2----2---------2----------------| 
G|----2----2---------2---2------2-2----| 
D|---0---------x3---0----2-x12--2-2----| 
A|--------4--------------0------0-0----| 
D|-------------------------------------| 
                         pm... 

Chorus: both guitars 
       always up or down, never down and out... 
e|-------------------------------------------------------| 
B|-------------------------------------------------------| 
G|---------2-----------2-----------2-----------2---------| 
D|---0-----2-x8--4-----2-x8--0-----2-x8--4-----2-x8--2---| 
A|---0-x8--0-----4-x8--0-----0-x8--0-----4-x8--0-----2---| 
D|---0-----------4-----------0-----------4-----------2---| 

interlude: guitar 1 
e|---------------------0----| 
B|-----2-----2----------2---| 
G|----2-2---2-2-------2-----| 
D|---------3-----x3---------| 
A|---0---------------0------| 
D|--------------------------| 

verse 3: both guitars 
        now that i'm grown... 
e|-------------------------------------------------------| 
B|------------------------------------------------10-10--| 
G|---2-----------------------2--------------------9--9---| 
D|---2-x4--4-----2-----0-----2-x4--4-----2-----0--7--7---| 
A|---0-----4-x4--2-x4--0-x4--0-----4-x4--2-x4--0---------| 
D|---------4-----2-----0-----------4-----2-----0---------| 
     pm......................................... 

      now that i'm grown... 
e|--------------------------------------------------| 
B|--------------------------------------------------| 
G|---2-----------------------2----------------------| 
D|---2-x4--4-----2-----0-----2-x4-4-----2-----0-----| 
A|---0-----4-x4--2-x4--0-x4--0----4-x4--2-x4--0-x4--| 
D|---------4-----2-----0----------4-----2-----0-----| 
     pm........................................... 

      weekend warriors... 
e|--------------------------------------------------| 
B|--------------------------------------------------| 
G|---2-----------------------2----------------------| 
D|---2-x4--4-----2-----0-----2-x4-4-----2-----0-----| 
A|---0-----4-x4--2-x4--0-x4--0----4-x4--2-x4--0-x4--| 
D|---------4-----2-----0----------4-----2-----0-----| 
     pm........................................... 

       then again some things... 
e|-----------------------------------------| 
B|-----------------------------------------| 
G|---2-----------------------2----------2--| 
D|---2-x4--4-----2-----0-----2-x4-4-----2--| 
A|---0-----4-x4--2-x4--0-x4--0----4-x4--0--| 
D|---------4-----2-----0----------4--------| 
     pm............................... 

Chorus: both guitars 
       always up or down, never down and out... 
e|-------------------------------------------------------------| 
B|-------------------------------------------------------------| 
G|---------2-----------2-----------2-----------2--------2------| 
D|---0-----2-x8--4-----2-x8--0-----2-x8--4-----2-x8--2--2-x16--| 
A|---0-x8--0-----4-x8--0-----0-x8--0-----4-x8--0-----2--0------| 
D|---0-----------4-----------0-----------4-----------2---------| 
                                                        pm...    

bridge: guitar 1 
      we won't forget...                            
e|--------------------------------------------| 
B|-------------------------------10------10---| 
G|--------2-----4----------------9--x12--9----| 
D|--4-----2-x8--4-x8--5------x3--7-------7----| 
A|--4-x8--0-----2-----5-x8--------------------| 
D|--4-----------------5-----------------------| 

bridge: guitar 2 
      we won't forget...                            
e|-----------------------------------------------------| 
B|-----------------------------------------------------| 
G|--------2-----4----------------------2-----4-----2---| 
D|--4-----2-x8--4-x8--5------x3--4-----2-x8--4-x8--2---| 
A|--4-x8--0-----2-----5-x8-------4-x8--0-----2-----0---| 
D|--4-----------------5----------4---------------------| 
                                 pm.............. 

Chorus: both guitars 
       always up or down, never down and out... 
e|-------------------------------------------------------| 
B|-------------------------------------------------------| 
G|---------2-----------2-----------2-----------2---------| 
D|---0-----2-x8--4-----2-x8--0-----2-x8--4-----2-x8--2---| 
A|---0-x8--0-----4-x8--0-----0-x8--0-----4-x8--0-----2---| 
D|---0-----------4-----------0-----------4-----------2---| 

outro: guitar 1 
e|---------------------0-----| 
B|----2-----2-----------2----| 
G|---2-2---2-2--x3----2------| 
D|--------3------------------| 
A|--0----------------0-------| 
D|---------------------------|
	        

See Also: