The Academy Is

Attention(Tabs)

The Academy Is

roll up this ad to continue

	        intro:guitar 1 
e|--00---------------------------------------------------| 
B|--00---------------------------------------------------| 
G|--xx---------------------------------------------------| 
D|--22---------------------------------------------------| 
A|--00---------------------------------------------------| 
E|--00---------------------------------------------------| 

  to the front of the room if only, if only for 1 second. 
e|----------------------------x--------------------------| 
B|----------------------------x--------------------------| 
G|----------------------------4--------------------------| 
D|----------------------------4--------------------------| 
A|----------------------------6--------------------------| 
E|----------------------------0--------------------------| 

verse 1:guitar 2 
  This table has taken a turn for the worse... 
e|--------------------------------------------| 
B|--------------------------------------------| 
G|--------------------------------------------| 
D|--7--------4--------------------------------| 
A|--7-x32----4-x16----------------------------| 
E|--5--------2--------------------------------| 
  pm.............. 

preChorus:guitar 1(guitar 2 keeps playing verse for preChorus) 
  Upside down and inside out... 
e|------------------------------------------------------------| 
B|------------------------------------------------------------| 
G|------------------------------------------------------------| 
D|--77-77-77-77-77-77-77-77-4~--------------------------------| 
A|--77-77-77-77-77-77-77-77-4~--------------------------------| 
E|--55-55-55-55-55-55-55-55-2~--------------------------------| 
    ..    ..    ..    .. 

Chorus:both guitars 
e|-------------------------------------------------------| 
B|-------------------------------------------------------| 
G|-------------------------------------------------------| 
D|--7~--------------------------------------4------------| 
A|--7~--------------------------------------4-x16--------| 
E|--5~--------------------------------------2------------| 

  to the front of the room if only, if only for 1 second. 
e|-------------------------------------------------------| 
B|-------------------------------------------------------| 
G|-------------------------------------------------------| 
D|---------------------------7--------------------4------| 
A|---------------------------7-x16----------------4-x16--| 
E|---------------------------5--------------------2------| 

  And will you here what I have to say? Oh did I mention 
e|-------------------------------------------------------| 
B|-------------------------------------------------------| 
G|-------------------------------------------------------| 
D|---------------------------------7~--------------------| 
A|---------------------------------7~--------------------| 
E|---------------------------------5~--------------------| 

  when I see you it stings like hell due to the fact that we 
e|----------------------------------------------------------| 
B|----------------------------------------------------------| 
G|----------------------------------------------------------| 
D|------------------4---------------------------------------| 
A|------------------4-x16-----------------------------------| 
E|------------------2---------------------------------------| 
                  pm..... 

  could have something, that will never happen. 
e|---------------------------------------------| 
B|---------------------------------------------| 
G|---------------------------------------------| 
D|-----------7--------------------------4------| 
A|-----------7-x16----------------------4-x16--| 
E|-----------5--------------------------2------| 

little guitar riff thing after Chorus: 
e|------------------------------------| 
B|------------------------------------| 
G|------------------------------------| 
D|---7-7-7-7-7-7-7-7------------------| 
A|---7-7-7-7-7-7-7-7------------------| 
E|---5-5-5-5-5-5-5-5------------------| 

verse 2:guitar 1(guitar 2 plays same thing as verse 1) 
     This balance has weighed out...not like it hurts.. 
e|----------------------------------------------------| 
B|----------------------------------------------------| 
G|----------------------------------------------------| 
D|---7-7-7-7-7-7-7-7-7-7-7-7-7-7-7-7-4-4-4-4-4~-------| 
A|---7-7-7-7-7-7-7-7-7-7-7-7-7-7-7-7-4-4-4-4-4~-------| 
E|---5-5-5-5-5-5-5-5-5-5-5-5-5-5-5-5-2-2-2-2-2~-------| 

preChorus:guitar 1 
  Upside down and inside out... 
e|-----------------------------| 
B|-----------------------------| 
G|-----------------------------| 
D|--77-77-77-77-77-77-77-77-4~-| 
A|--77-77-77-77-77-77-77-77-4~-| 
E|--55-55-55-55-55-55-55-55-2~-| 
    ..    ..    ..    .. 

preChorus:guitar 2 
  Upside down and inside out... 
e|--------------------------------| 
B|--------------------------------| 
G|--------------------------------| 
D|--7---------4---------7-----7~--| 
A|--7-x32-----4-x16-----7-x8--7~--| 
E|--5---------2---------5-----5~--| 
pm........................... 

Chorus:both guitars 
e|-------------------------------------------------------| 
B|-------------------------------------------------------| 
G|-------------------------------------------------------| 
D|--7~--------------------------------------4------------| 
A|--7~--------------------------------------4-x16--------| 
E|--5~--------------------------------------2------------| 

  to the front of the room if only, if only for 1 second. 
e|-------------------------------------------------------| 
B|-------------------------------------------------------| 
G|-------------------------------------------------------| 
D|---------------------------7--------------------4------| 
A|---------------------------7-x16----------------4-x16--| 
E|---------------------------5--------------------2------| 

  And will you here what I have to say? Oh did I mention 
e|-------------------------------------------------------| 
B|-------------------------------------------------------| 
G|-------------------------------------------------------| 
D|---------------------------------7~--------------------| 
A|---------------------------------7~--------------------| 
E|---------------------------------5~--------------------| 

  when I see you it stings like hell due to the fact that we 
e|----------------------------------------------------------| 
B|----------------------------------------------------------| 
G|----------------------------------------------------------| 
D|------------------4---------------------------------------| 
A|------------------4-x16-----------------------------------| 
E|------------------2---------------------------------------| 
                  pm..... 

  could have something, something. 
e|--------------------------------| 
B|--------------------------------| 
G|--------------------------------| 
D|-----------6~--7~-----6~--7~----| 
A|-----------6~--7~-----6~--7~----| 
E|-----------4~--5~-----4~--5~----| 

bridge:guitar 1 
e|-------------------------------------------|--|---------------------------| 
B|-------------------------------------------|--|---------------------------| 
G|--9-11-11-11--9-11-11-11-------------------|--|-9----11----13----14----14-| 
D|--9-11-11-11--9-11-11-11--4-7-7-7--4-7-7-7-|x2|-9-x4-11-x4-13-x4-14-x4-14-| 
A|--7-9--9--9---7-9--9--9---4-7-7-7--4-7-7-7-|--|-7----9-----11----12----12-| 
E|--------------------------2-5-5-5--2-5-5-5-|--|---------------------------| 

bridge:guitar 2 
e|----------------------------------------| 
B|----------------------------------------| 
G|----------------------------------------| 
D|--7-----444-444--7-----444-444--7-----7-| 
A|--7-x16-444-444--7-x16-444-444--7-x16-7-| 
E|--5-----222-222--5-----222-222--5-----5-| 

Chorus:both guitars 
e|---------------------------------------------------------------------------| 
B|---------------------------------------------------------------------------| 
G|---9-----build up this note until power chords come in---------------------| 
D|---------------------------------------------------------------------------| 
A|---------------------------------------------------------------------------| 
E|---------------------------------------------------------------------------| 

  if only, if only for 1 second. And will you hear what I have to say? 
e|--------------------------------------------------------------------| 
B|--------------------------------------------------------------------| 
G|--------------------------------------------------------------------| 
D|---7-------------------4--------------------------------------------| 
A|---7-x16---------------4-x16----------------------------------------| 
E|---5-------------------2--------------------------------------------| 

  Oh, did I mention when I see you it stings like hell due to the fact 
e|--------------------------------------------------------------------| 
B|--------------------------------------------------------------------| 
G|--------------------------------------------------------------------| 
D|-7----------------------------------4-------------------------------| 
A|-7-x16------------------------------4-x16---------------------------| 
E|-5----------------------------------2-------------------------------| 

  that we could have something, that will never happen. 
e|-----------------------------------------------------| 
B|-----------------------------------------------------| 
G|-----------------------------------------------------| 
D|-------------------7--------------------------4------| 
A|-------------------7-x16----------------------4-x16--| 
E|-------------------5--------------------------2------| 

outro:both guitars 
e|-------------------------------------------------| 
B|-------------------------------------------------| 
G|-------------------------------------------------| 
D|-7~--------7~----------4~-------------4~---------| 
A|-7~--------7~----------4~-------------4~---------| 
E|-5~--------5~----------2~-------------2~---------| 

e|-------------------------------------------------| 
B|-------------------------------------------------| 
G|-------------------------------------------------| 
D|-7~--------7~----------4~-------------4~---------| 
A|-7~--------7~----------4~-------------4~---------| 
E|-5~--------5~----------2~-------------2~---------|
	        

See Also: