E-Chords
Tersol

Enfim só(Tabs)

Tersol

Key: F
 
 INTRO 
 
     F 
 e|---------------------| 
 B|---------------------| 
 G|-10-10-x-x-10-10-x-x-| 
 D|-10-10-x-x-10-10-x-x-|     5X 
 A|--8--8-x-x--8--8-x-x-| 
 E|---------------------| 
 
 VERSOS 
 
     C   G   Bb  F   
 e|-------------------| 
 B|-------------------| 
 G|---5-------3-------| 
 D|---5---5---3---3---| 
 A|---3---5---1---3---| 
 E|-------3-------1---| 
 
 
      C                             G 
 Não sei oque que eu faço com essa louca 
 
              Bb                    F 
 e|--------------------------------------| 
 B|--------------------------------------| 
 G|-------7---3~------------------/10----| 
 D|---5----------------------------------| 
 A|--------------------------------------| 
 E|--------------------------------------| 
  
 Beijo na boca, eu, não aguento mais 
 
    C                         G 
 Talvez se eu chegar meio de farra 
 
             Bb                    F 
 Forçando a barra, eu, vou ganhar mais 
 
 
 REFRÃO 
 
     C   D   A   Bb   
 e|-------------------| 
 B|-------------------| 
 G|---5---7-------3---| 
 D|---5---7---7---3---| 
 A|---3---5---7---1---| 
 E|-----------5-------| 
  
       C                       D 
 Não quero nem saber de compromisso 
   
           A                   Bb 
 Não quero isso não, não para mim   
  
 
 
    C           G 
 Nananá-nana Nananá-nana 
  
   Bb           F 
 Nananá-nana Nananá-nana 
  
 RIFF 
  
      C               G               Bb              F   
 e|-----------------------------------------------------------------| 
 B|-----------------------------------------------------------------| 
 G|---5-5-5...--5-5-------------------3-3-3...--3-3-----------------| 
 D|---5-5-5...--5-5---5-5-5...--5-5---3-3-3...--3-3---3-3-3...--3-3-| 
 A|---3-3-3...--3-3---5-5-5...--5-5---1-1-1...--1-1---3-3-3...--3-3-| 
 E|-------------------3-3-3...--3-3-------------------1-1-1...--1-1-|   
 
 VERSOS 
 
     C   G   Bb  F   
 e|-------------------| 
 B|-------------------| 
 G|---5-------3-------| 
 D|---5---5---3---3---| 
 A|---3---5---1---3---| 
 E|-------3-------1---| 
 
 
 
 Eu quero é conhecer seu lado intimo   
 E com carinho 
  
 
_______________________________________________________ 
Contribuição: Bruno Alves Barata([email protected]) 

roll up this ad to continue

share this page

See Also: