E-Chords
Teenage Head

First Time(Tabs)

Teenage Head

roll up this ad to continue

I'm not sure if this is completely correct, but it is pretty darn close. 
Leave your corrections in the comments. 

Tuning: Standard 

Intro 

e|---------------------------------------------------------------------------| 
B|---------------------------------------------------------------------------| 
G|--7------------------------------------------------------------------------| 
D|--7-------------------------------5----------------------------------------| x2 
A|--5-------------------------------5----------------------------------------| 
E|----------------------------------3----------------------------------------| 

Chorus 

e|---------------------------------------------------------------------------| 
B|---------------------------------------------------------------------------| 
G|--7-7-7-7-7-7-7-7-7-7-7-7-7-7-7-7------------------------------------------| 
D|--7-7-7-7-7-7-7-7-7-7-7-7-7-7-7-7-5-5-5-5-5-5-5-5-7-7-7-7-7-7-7-7----------| x4 
A|--5-5-5-5-5-5-5-5-5-5-5-5-5-5-5-5-5-5-5-5-5-5-5-5-7-7-7-7-7-7-7-7----------| 
E|----------------------------------3-3-3-3-3-3-3-3-5-5-5-5-5-5-5-5----------| 

Verse 

e|---------------------------------------------------------------------------| 
B|---------------------------------------------------------------------------| 
G|--7-7-7-7-7-7-7-7-7-7-7-7-7-7-7-7------------------------------------------| 
D|--7-7-7-7-7-7-7-7-7-7-7-7-7-7-7-7-5-5-5-5-5-5-5-5-7-7-7-7-7-7-7-7----------| x4 
A|--5-5-5-5-5-5-5-5-5-5-5-5-5-5-5-5-5-5-5-5-5-5-5-5-7-7-7-7-7-7-7-7----------| 
E|----------------------------------3-3-3-3-3-3-3-3-5-5-5-5-5-5-5-5----------| 
    PM-------------------------------------------------------------| 

Chorus 

e|---------------------------------------------------------------------------| 
B|---------------------------------------------------------------------------| 
G|--7-7-7-7-7-7-7-7-7-7-7-7-7-7-7-7------------------------------------------| 
D|--7-7-7-7-7-7-7-7-7-7-7-7-7-7-7-7-5-5-5-5-5-5-5-5-7-7-7-7-7-7-7-7----------| x4 
A|--5-5-5-5-5-5-5-5-5-5-5-5-5-5-5-5-5-5-5-5-5-5-5-5-7-7-7-7-7-7-7-7----------| 
E|----------------------------------3-3-3-3-3-3-3-3-5-5-5-5-5-5-5-5----------| 

Bridge 

e|---------------------------------------------------------------------------| 
B|---------------------------------------------------------------------------| 
G|--6-------------------------------7-7--7-7---------------------------------| 
D|--6-------------------------------7-7--7-7---------------------------------| 
A|--4-------------------------------5-5--5-5---------------------------------| 
E|---------------------------------------------------------------------------| 
                        

e|---------------------------------------------------------------------------| 
B|---------------------------------------------------------------------------| 
G|--6------------------------------------------------------------------------| 
D|--6-------------------------------5-5-5-5-5-5-5-5-7-7-7-7-7-7-7-7----------| 
A|--4-------------------------------5-5-5-5-5-5-5-5-7-7-7-7-7-7-7-7----------| 
E|----------------------------------3-3-3-3-3-3-3-3-5-5-5-5-5-5-5-5----------| 
                                    PM-----------------------------| 
Chorus 

e|---------------------------------------------------------------------------| 
B|---------------------------------------------------------------------------| 
G|--7-7-7-7-7-7-7-7-7-7-7-7-7-7-7-7------------------------------------------| 
D|--7-7-7-7-7-7-7-7-7-7-7-7-7-7-7-7-5-5-5-5-5-5-5-5-7-7-7-7-7-7-7-7----------| x4 
A|--5-5-5-5-5-5-5-5-5-5-5-5-5-5-5-5-5-5-5-5-5-5-5-5-7-7-7-7-7-7-7-7----------| 
E|----------------------------------3-3-3-3-3-3-3-3-5-5-5-5-5-5-5-5----------| 

Solo 

e|---------------------------------------------------------------------------| 
B|---------------------------------------------------------------------------| 
G|--7--7-7---------7--7-7----------------------------------------------------| 
D|--7--7-7---------7--7-7-----------5--5-5----------7--7-7-------------------| x4 
A|--5--5-5---------5--5-5-----------5--5-5----------7--7-7-------------------| 
E|----------------------------------3--3-3----------5--5-5-------------------| 

Chorus 

e|---------------------------------------------------------------------------| 
B|---------------------------------------------------------------------------| 
G|--7-7-7-7-7-7-7-7-7-7-7-7-7-7-7-7------------------------------------------| 
D|--7-7-7-7-7-7-7-7-7-7-7-7-7-7-7-7-5-5-5-5-5-5-5-5-7-7-7-7-7-7-7-7----------| x4 
A|--5-5-5-5-5-5-5-5-5-5-5-5-5-5-5-5-5-5-5-5-5-5-5-5-7-7-7-7-7-7-7-7----------| 
E|----------------------------------3-3-3-3-3-3-3-3-5-5-5-5-5-5-5-5----------| 


************************************ 
| PM  Palm mute 
************************************ 
share this page

See Also: