Taylor Swift

Run(Tabs)

Taylor Swift

Key: Cadd

roll up this ad to continue

	        ( casa) 

Cadd 9 
--------------------------------------------------------------------------| 
3------------------------3------------------------3-----------------------| 
----2-----2-----2-----2------2-----2-----2-----2------2-----2-----2-----2-| 
--0-----0-----0-----0------0-----0-----0-----0------0-----0-----0-----0---| 
------3-----3-----3------------3-----3-----3------------3-----3-----3-----| 
--------------------------------------------------------------------------| 

-----------------| 
-3---------------| 
-----2-----------| 
---0-----0-------| 
-------3---------| 
-----------0-0h3-|
	        

See Also: