E-Chords
Takeharu Ishimoto

Night Of Seclusion(Tabs)

Takeharu Ishimoto

Key: Em
This is my first tabs and i hope it would turn out good. 

I recommend listening to the Instrumental/Piece/Music/Song while learning this. 
This Instrumental lasts for almost 4 minutes but its tabs just keeps repeating so this  
tabs won't be too 
long. 

Slide - / 

Intro Chords: Em - C 

   Em       C 
e-------|-------|| 
B-------|-1-----|| 
G-------|-------|| 
D--2----|--2----|| 
A--2----|---3---|| 
E-------|---3---|| 

1st Part Tabs: 

e---------5-------|---------5-------|| 
B------3-5-5--3---|------3-5-5--3---|| 
G---------------5-|---4/5---------5-|| 
D-----------------|-----------------|| 
A-----------------|-----------------|| 
E-----------------|-----------------|| 

2nd Part Tabs: 
Chords: D - C 

e------------------|---------------|------------------|------------------|| 
B--3---3-----------|-3---3-----5---|--3---3-----------|--3--3------------|| 
G-------5-4-5--2---|------5-4-5----|-------5-4-5--2---|------5-4-5--2---0|| 
D------------------|---------------|------------------|------------------|| 
A------------------|---------------|------------------|------------------|| 
E------------------|---------------|------------------|------------------|| 

3rd Part Tabs: 

e-------------------|--------------------|-------------------|--------------------|| 
B-------------------|--------------3-3-3-|-------------------|--------------3-3-3-|| 
G--4--2--0-2-0------|--4--2--0-2-0-------|--4--2--0-2-0------|--4--2--0-2-0-------|| 
D-------------4-5-4-|--------------------|-------------4-5-4-|--------------------|| 
A-------------------|--------------------|-------------------|--------------------|| 
E-------------------|--------------------|-------------------|--------------------|| 

That's all. If somethings are wrong, please tell me as this is my first tab to submit... 

roll up this ad to continue

share this page

See Also: